  0
SECTION
  2
HEADER
  9
$ACADVER
  1
AC1009
  9
$INSBASE
 10
0
 20
0
 30
0
  9
$EXTMIN
 10
0
 20
0
  9
$EXTMAX
 10
8410
 20
5940
  9
$LIMMIN
 10
0
 20
0
  9
$LIMMAX
 10
8410
 20
5940
  9
$LTSCALE
 40
10
  0
ENDSEC
  0
SECTION
  2
TABLES
  0
TABLE
  2
LTYPE
 70
     9
  0
LTYPE
  2
CONTINUOUS
 70
    64
  3
実線
 72
    65
 73
     0
 40
0.0
  0
LTYPE
  2
DASHED1
 70
    64
  3
--  --  --  --  --  --  --  --  
 72
    65
 73
     2
 40
2.5
 49
1.25
 49
-1.25
  0
LTYPE
  2
DASHED2
 70
    64
  3
----    ----    ----    ----    
 72
    65
 73
     2
 40
5.0
 49
2.5
 49
-2.5
  0
LTYPE
  2
DASHED3
 70
    64
  3
------  ------  ------  ------  
 72
    65
 73
     2
 40
5.0
 49
3.75
 49
-1.25
  0
LTYPE
  2
CENTER1
 70
    64
  3
----- - ----- - ----- - ----- - 
 72
    65
 73
     4
 40
10.0
 49
6.25
 49
-1.25
 49
1.25
 49
-1.25
  0
LTYPE
  2
CENTER2
 70
    64
  3
----------  --  ----------  --  
 72
    65
 73
     4
 40
20.0
 49
12.5
 49
-2.5
 49
2.5
 49
-2.5
  0
LTYPE
  2
PHANTOM1
 70
    64
  3
--- - - --- - - --- - - --- - - 
 72
    65
 73
     6
 40
10.0
 49
3.25
 49
-1.25
 49
1.25
 49
-1.25
 49
1.25
 49
-1.25
  0
LTYPE
  2
PHANTOM2
 70
    64
  3
--------  -  -  --------  -  -  
 72
    65
 73
     6
 40
20.0
 49
10.0
 49
-2.5
 49
1.25
 49
-2.5
 49
1.25
 49
-2.5
  0
LTYPE
  2
DOT
 70
    64
  3
-   -   -   -   -   -   -   -   
 72
    65
 73
     2
 40
2.5
 49
0.625
 49
-1.875
  0
LTYPE
  2
DUMMY
 70
    64
  3
ダミー
 72
    65
 73
     0
 40
0.0
  0
LTYPE
  2
RAND1
 70
    64
  3
ランダム線1
 72
    65
 73
     4
 40
10.0
 49
1.0
 49
-2.0
 49
3.0
 49
-4.0
  0
LTYPE
  2
RAND2
 70
    64
  3
ランダム線2
 72
    65
 73
     4
 40
14.0
 49
2.0
 49
-3.0
 49
4.0
 49
-5.0
  0
LTYPE
  2
RAND3
 70
    64
  3
ランダム線3
 72
    65
 73
     4
 40
18.0
 49
3.0
 49
-4.0
 49
5.0
 49
-6.0
  0
LTYPE
  2
RAND4
 70
    64
  3
ランダム線4
 72
    65
 73
     4
 40
22.0
 49
4.0
 49
-5.0
 49
6.0
 49
-7.0
  0
LTYPE
  2
RAND5
 70
    64
  3
ランダム線5
 72
    65
 73
     4
 40
26.0
 49
5.0
 49
-6.0
 49
7.0
 49
-8.0
  0
LTYPE
  2
LONG1
 70
    64
  3
----------  --  ----------  --  
 72
    65
 73
     4
 40
40.0
 49
32.5
 49
-2.5
 49
2.5
 49
-2.5
  0
LTYPE
  2
LONG2
 70
    64
  3
--------  -  -  --------  -  -  
 72
    65
 73
     6
 40
40.0
 49
30.0
 49
-2.5
 49
1.25
 49
-2.5
 49
1.25
 49
-2.5
  0
LTYPE
  2
LONG3
 70
    64
  3
+++++++++++++++..+++++++++++++++
 72
    65
 73
     2
 40
40.0
 49
37.5
 49
-2.5
  0
LTYPE
  2
LONG4
 70
    64
  3
+++++++++++++++..+++++++++++++++
 72
    65
 73
     2
 40
80.0
 49
75.0
 49
-5.0
  0
LTYPE
  2
LONG5
 70
    64
  3
----------  --  ----------  --  
 72
    65
 73
     4
 40
60.0
 49
37.5
 49
-7.5
 49
7.5
 49
-7.5
  0
LTYPE
  2
dashed
 70
   64
  3
-------   -------------   ------
 72
   65
 73
    2
 40
7.5
 49
6
 49
-1.5
  0
LTYPE
  2
dashed_spaced
 70
   64
  3
----        --------        ----
 72
   65
 73
    2
 40
12
 49
6
 49
-6
  0
LTYPE
  2
long_dashed_dotted
 70
   64
  3
------------- --- --------------
 72
   65
 73
    4
 40
15.25
 49
12
 49
-1.5
 49
0.25
 49
-1.5
  0
LTYPE
  2
long_dashed_double-dotted
 70
   64
  3
----------- --- --- ------------
 72
   65
 73
    6
 40
17
 49
12
 49
-1.5
 49
0.25
 49
-1.5
 49
0.25
 49
-1.5
  0
LTYPE
  2
long_dashed_triplicate-dotted
 70
   64
  3
--------- --- --- --- ----------
 72
   65
 73
    8
 40
18.75
 49
12
 49
-1.5
 49
0.25
 49
-1.5
 49
0.25
 49
-1.5
 49
0.25
 49
-1.5
  0
LTYPE
  2
dotted
 70
   64
  3
   -       -       -       -    
 72
   65
 73
    2
 40
1.75
 49
0.25
 49
-1.5
  0
LTYPE
  2
chain
 70
   64
  3
-------------- -- --------------
 72
   65
 73
    4
 40
18.5
 49
12
 49
-1.5
 49
3.5
 49
-1.5
  0
LTYPE
  2
chain_double_dash
 70
   64
  3
------------ -- -- -------------
 72
   65
 73
    6
 40
23.5
 49
12
 49
-1.5
 49
3.5
 49
-1.5
 49
3.5
 49
-1.5
  0
LTYPE
  2
dashed_dotted
 70
   64
  3
-----------     -     ----------
 72
   65
 73
    4
 40
9.25
 49
6
 49
-1.5
 49
0.25
 49
-1.5
  0
LTYPE
  2
double-dashed_dotted
 70
   64
  3
------   -----------   -   -----
 72
   65
 73
    6
 40
16.75
 49
6
 49
-1.5
 49
6
 49
-1.5
 49
0.25
 49
-1.5
  0
LTYPE
  2
dashed_double-dotted
 70
   64
  3
---------    -    -    ---------
 72
   65
 73
    6
 40
11
 49
6
 49
-1.5
 49
0.25
 49
-1.5
 49
0.25
 49
-1.5
  0
LTYPE
  2
double-dashed_double-dotted
 70
   64
  3
-----   ---------   -   -   ----
 72
   65
 73
    8
 40
18.5
 49
6
 49
-1.5
 49
6
 49
-1.5
 49
0.25
 49
-1.5
 49
0.25
 49
-1.5
  0
LTYPE
  2
dashed_triplicate-dotted
 70
   64
  3
-------    -    -    -    ------
 72
   65
 73
    8
 40
12.75
 49
6
 49
-1.5
 49
0.25
 49
-1.5
 49
0.25
 49
-1.5
 49
0.25
 49
-1.5
  0
LTYPE
  2
double-dashed_triplicate-dotted
 70
   64
  3
-----  ---------  -  -  -  -----
 72
   65
 73
   10
 40
20.25
 49
6
 49
-1.5
 49
6
 49
-1.5
 49
0.25
 49
-1.5
 49
0.25
 49
-1.5
 49
0.25
 49
-1.5
  0
LTYPE
  2
undefined
 70
   64
  3
--------------------------------
 72
   65
 73
    0
 40
0
  0
LTYPE
  2
_
 70
   64
  3
                                
 72
   65
 73
    0
 40
0
  0
LTYPE
  2
__18
 70
   64
  3
                                
 72
   65
 73
    0
 40
0
  0
LTYPE
  2
__19
 70
   64
  3
                                
 72
   65
 73
    0
 40
0
  0
LTYPE
  2
__20
 70
   64
  3
                                
 72
   65
 73
    0
 40
0
  0
LTYPE
  2
__21
 70
   64
  3
                                
 72
   65
 73
    0
 40
0
  0
LTYPE
  2
__22
 70
   64
  3
                                
 72
   65
 73
    0
 40
0
  0
LTYPE
  2
__23
 70
   64
  3
                                
 72
   65
 73
    0
 40
0
  0
LTYPE
  2
__24
 70
   64
  3
                                
 72
   65
 73
    0
 40
0
  0
LTYPE
  2
__25
 70
   64
  3
                                
 72
   65
 73
    0
 40
0
  0
LTYPE
  2
__26
 70
   64
  3
                                
 72
   65
 73
    0
 40
0
  0
LTYPE
  2
__27
 70
   64
  3
                                
 72
   65
 73
    0
 40
0
  0
LTYPE
  2
__28
 70
   64
  3
                                
 72
   65
 73
    0
 40
0
  0
LTYPE
  2
__29
 70
   64
  3
                                
 72
   65
 73
    0
 40
0
  0
LTYPE
  2
__30
 70
   64
  3
                                
 72
   65
 73
    0
 40
0
  0
LTYPE
  2
__31
 70
   64
  3
                                
 72
   65
 73
    0
 40
0
  0
LTYPE
  2
__32
 70
   64
  3
                                
 72
   65
 73
    0
 40
0
  0
ENDTAB
  0
TABLE
  2
STYLE
  5
3
100
AcDbSymbolTable
 70
     1
  0
STYLE
  5
10
100
AcDbSymbolTableRecord
100
AcDbTextStyleTableRecord
  2
STANDARD
 70
     0
 40
0.0
 41
1.0
 50
0.0
 71
     0
 42
0.2
  3
txt
  4
bigfont.shx
  0
STYLE
  5
26
100
AcDbSymbolTableRecord
100
AcDbTextStyleTableRecord
  2
TATEGAKI
 70
    68
 40
0.0
 41
1.0
 50
0.0
 71
     0
 42
1.0
  3
txt
  4
bigfont.shx
  0
ENDTAB
  0
TABLE
  2
LAYER
 70
    3
  0
LAYER
  2
_0-0_
 70
   64
 62
    7
  6
CONTINUOUS
  0
LAYER
  2
_1-0_
 70
   64
 62
    7
  6
CONTINUOUS
  0
LAYER
  2
ADD_LINE
 70
   64
 62
    7
  6
CONTINUOUS
  0
ENDTAB
  0
ENDSEC
  0
SECTION
  2
BLOCKS
  0
ENDSEC
  0
SECTION
  2
ENTITIES
  0
LINE
  8
_0-0_
  6
CONTINUOUS
 62
    7
 10
3570.0001019216411
 20
4384.9997599244571
 11
2475.0000179688441
 21
4384.9997599244571
  0
LINE
  8
_1-0_
  6
CONTINUOUS
 62
    7
 10
2475.0000179688441
 20
2748.7685900949605
 11
3570.0001019216411
 21
2748.7685900949605
  0
TEXT
  8
_1-0_
 62
    7
 10
2487.7977605399933
 20
3514.6646495574696
 40
30
 41
1
 50
0
  1
フック付き目地鉄筋
  0
LINE
  8
_0-0_
  6
CONTINUOUS
 62
    7
 10
2475.0000179688441
 20
1150.0000075852088
 11
2475.0000179688441
 21
4464.9998845280825
  0
LINE
  8
_0-0_
  6
CONTINUOUS
 62
    7
 10
1314.9999990426436
 20
1155.000014360347
 11
6654.9999952868602
 21
1155.000014360347
  0
LINE
  8
_0-0_
  6
CONTINUOUS
 62
    7
 10
1320.0000058177818
 20
955.00000581778158
 11
6649.9999010240708
 21
955.00000581778158
  0
LINE
  8
_0-0_
  6
CONTINUOUS
 62
    7
 10
6654.9999952868602
 20
4770.0000353485457
 11
1314.9999990426436
 21
4770.0000353485457
  0
LINE
  8
_0-0_
  6
CONTINUOUS
 62
    7
 10
1314.9999990426436
 20
1150.0000075852088
 11
6654.9999952868602
 21
1150.0000075852088
  0
LINE
  8
_0-0_
  6
CONTINUOUS
 62
    7
 10
6405.00018145587
 20
955.00000581778158
 11
6405.00018145587
 21
1150.0000075852088
  0
LINE
  8
_0-0_
  6
CONTINUOUS
 62
    7
 10
6105.0001248981962
 20
955.00000581778158
 11
6105.0001248981962
 21
1050.0000033139261
  0
LINE
  8
_0-0_
  6
CONTINUOUS
 62
    7
 10
1314.9999990426436
 20
949.99999904264337
 11
6654.9999952868602
 21
949.99999904264337
  0
LINE
  8
_0-0_
  6
CONTINUOUS
 62
    7
 10
5104.9998197224149
 20
949.99999904264337
 11
5104.9998197224149
 21
1150.0000075852088
  0
LINE
  8
_0-0_
  6
CONTINUOUS
 62
    7
 10
6654.9999952868602
 20
949.99999904264337
 11
6654.9999952868602
 21
1150.0000075852088
  0
LINE
  8
_0-0_
  6
CONTINUOUS
 62
    7
 10
6649.9999010240708
 20
955.00000581778158
 11
6649.9999010240708
 21
1150.0000075852088
  0
LINE
  8
_0-0_
  6
CONTINUOUS
 62
    7
 10
6649.9999010240708
 20
4764.9999410857563
 11
1320.0000058177818
 21
4764.9999410857563
  0
LINE
  8
_0-0_
  6
CONTINUOUS
 62
    7
 10
5104.9998197224149
 20
1050.0000033139261
 11
6405.00018145587
 21
1050.0000033139261
  0
LINE
  8
_0-0_
  6
CONTINUOUS
 62
    7
 10
1314.9999990426436
 20
1150.0000075852088
 11
1314.9999990426436
 21
949.99999904264337
  0
LINE
  8
_0-0_
  6
CONTINUOUS
 62
    7
 10
1320.0000058177818
 20
1150.0000075852088
 11
1320.0000058177818
 21
955.00000581778158
  0
LINE
  8
_0-0_
  6
CONTINUOUS
 62
    7
 10
6652.4999481554651
 20
952.50000243021248
 11
6652.4999481554651
 21
1150.0000075852088
  0
LINE
  8
_0-0_
  6
CONTINUOUS
 62
    7
 10
1317.5000024302126
 20
952.50000243021248
 11
6652.4999481554651
 21
952.50000243021248
  0
LINE
  8
_0-0_
  6
CONTINUOUS
 62
    7
 10
1317.5000024302126
 20
1150.0000075852088
 11
1317.5000024302126
 21
952.50000243021248
  0
LINE
  8
_0-0_
  6
CONTINUOUS
 62
    7
 10
6652.4999481554651
 20
4767.4999882171514
 11
1317.5000024302126
 21
4767.4999882171514
  0
LINE
  8
_0-0_
  6
CONTINUOUS
 62
    7
 10
3565.000182634154
 20
4467.4999316594776
 11
1320.0000058177818
 21
4467.4999316594776
  0
TEXT
  8
_0-0_
 62
    7
 10
1344.5810090252792
 20
1109.9999971279306
 40
30
 41
1
 50
0
  1
摘要
  0
TEXT
  8
_0-0_
 62
    7
 10
5125.465012480392
 20
1110.3990939225009
 40
30
 41
1
 50
0
  1
工事名称
  0
TEXT
  8
_0-0_
 62
    7
 10
6125.4638772029211
 20
1010.3024376681412
 40
30
 41
1
 50
0
  1
縮尺
  0
TEXT
  8
_0-0_
 62
    7
 10
6423.6011873340976
 20
1110.1082630967542
 40
30
 41
1
 50
0
  1
図面番号
  0
LINE
  8
_0-0_
  6
CONTINUOUS
 62
    7
 10
6405.00018145587
 20
955.00000581778158
 11
6649.9999010240708
 21
1150.0000075852088
  0
LINE
  8
_0-0_
  6
CONTINUOUS
 62
    7
 10
6649.9999010240708
 20
1150.0000075852088
 11
6649.9999010240708
 21
4764.9999410857563
  0
LINE
  8
_0-0_
  6
CONTINUOUS
 62
    7
 10
6652.4999481554651
 20
1150.0000075852088
 11
6652.4999481554651
 21
4767.4999882171514
  0
LINE
  8
_0-0_
  6
CONTINUOUS
 62
    7
 10
6654.9999952868602
 20
1150.0000075852088
 11
6654.9999952868602
 21
4770.0000353485457
  0
LINE
  8
_0-0_
  6
CONTINUOUS
 62
    7
 10
1314.9999990426436
 20
4770.0000353485457
 11
1314.9999990426436
 21
1144.2130750605327
  0
LINE
  8
_0-0_
  6
CONTINUOUS
 62
    7
 10
1317.5000024302126
 20
4767.4999882171514
 11
1317.5000024302126
 21
1150.000007585209
  0
LINE
  8
_0-0_
  6
CONTINUOUS
 62
    7
 10
1320.0000058177818
 20
4764.9999410857563
 11
1320.0000058177818
 21
1150.0000075852086
  0
LINE
  8
_0-0_
  6
DASHED1
 62
    7
 10
2454.9999908682921
 20
1100.0000054495674
 11
1327.3254234358149
 21
1100.0000054495674
  0
LINE
  8
_0-0_
  6
CONTINUOUS
 62
    7
 10
2475.0000179688441
 20
955.00000581778158
 11
2475.0000179688441
 21
1150.0000075852088
  0
LINE
  8
_0-0_
  6
DASHED1
 62
    7
 10
2454.9999908682921
 20
1050.0000033139261
 11
1327.3254234358149
 21
1050.0000033139261
  0
LINE
  8
_0-0_
  6
DASHED1
 62
    7
 10
2454.9999908682921
 20
1000.0000011782847
 11
1327.3254234358149
 21
1000.0000011782847
  0
TEXT
  8
_0-0_
 62
    7
 10
2571.2832953847055
 20
1023.6412752733268
 40
30
 41
1
 50
0
  1
年　　月　　日
  0
TEXT
  8
_0-0_
 62
    7
 10
2529.9999723103056
 20
1109.9999971279306
 40
30
 41
1
 50
0
  1
設 計 年 月 日
  0
LINE
  8
_0-0_
  6
CONTINUOUS
 62
    7
 10
2475.0000179688441
 20
1100.0000054495674
 11
3570.0001019216411
 21
1100.0000054495674
  0
LINE
  8
_0-0_
  6
CONTINUOUS
 62
    7
 10
2810.0001219524843
 20
955.00000581778158
 11
2810.0001219524843
 21
1150.0000075852088
  0
LINE
  8
_0-0_
  6
CONTINUOUS
 62
    7
 10
3210.0001390376146
 20
955.00000581778158
 11
3210.0001390376146
 21
1150.0000075852088
  0
LINE
  8
_0-0_
  6
CONTINUOUS
 62
    7
 10
3330.0001266656236
 20
1150.0000075852088
 11
3330.0001266656236
 21
955.00000581778158
  0
LINE
  8
_0-0_
  6
CONTINUOUS
 62
    7
 10
3570.0001019216411
 20
955.00000581778158
 11
3570.0001019216411
 21
1150.0000075852088
  0
LINE
  8
_0-0_
  6
CONTINUOUS
 62
    7
 10
3450.0001142936321
 20
1150.0000075852088
 11
3450.0001142936321
 21
955.00000581778158
  0
TEXT
  8
_0-0_
 62
    7
 10
2890.0001976572867
 20
1109.9999971279306
 40
30
 41
1
 50
0
  1
変 更 年 月 日
  0
TEXT
  8
_0-0_
 62
    7
 10
3228.7501496421783
 20
1109.9999971279306
 40
30
 41
1
 50
0
  1
承 認
  0
TEXT
  8
_0-0_
 62
    7
 10
3348.7499622948844
 20
1109.9999971279306
 40
30
 41
1
 50
0
  1
設 計
  0
TEXT
  8
_0-0_
 62
    7
 10
3468.7501248981962
 20
1109.9999971279306
 40
30
 41
1
 50
0
  1
製 図
  0
TEXT
  8
_0-0_
 62
    7
 10
6203.0466395174471
 20
986.44918174797965
 40
30
 41
1
 50
0
  1
Ｓ＝１／１０
  0
TEXT
  8
_0-0_
 62
    7
 10
5125.5236963691859
 20
1010.0377219063896
 40
30
 41
1
 50
0
  1
図面名称
  0
LINE
  8
_0-0_
  6
CONTINUOUS
 62
    7
 10
1355.8079066090982
 20
4424.1259267250443
 11
1355.8079066090982
 21
4448.1258892555852
  0
LINE
  8
_0-0_
  6
CONTINUOUS
 62
    7
 10
1357.8079071319621
 20
4424.1259267250443
 11
1357.8079071319621
 21
4448.1258892555852
  0
LINE
  8
_0-0_
  6
CONTINUOUS
 62
    7
 10
1362.8079139071001
 20
4424.1259267250443
 11
1350.8079107699173
 21
4424.1259267250443
  0
LINE
  8
_0-0_
  6
CONTINUOUS
 62
    7
 10
1362.8079139071001
 20
4448.1258892555852
 11
1350.8079107699173
 21
4448.1258892555852
  0
TEXT
  8
_0-0_
 62
    7
 10
1410.0000058177818
 20
4264.9998845280825
 40
25
 41
1.2
 50
0
  1
適合するもの
  0
TEXT
  8
_0-0_
 62
    7
 10
1380.0000058177818
 20
4414.9998845280825
 40
40
 41
1
 50
0
  1
シポレックス（ＡＬＣ）パネル仕様
  0
TEXT
  8
_0-0_
 62
    7
 10
1380.0000058177818
 20
4364.9998845280825
 40
25
 41
1.2
 50
0
  1
1 シポレックス（ＡＬＣ）パネル仕様
  0
LINE
  8
_0-0_
  6
CONTINUOUS
 62
    7
 10
1617.2013010297501
 20
4060.0000047131398
 11
1617.2013010297501
 21
4085.0001260764811
  0
LINE
  8
_0-0_
  6
CONTINUOUS
 62
    7
 10
1617.2013010297501
 20
4085.0001260764811
 11
1642.2012474177886
 21
4085.0001260764811
  0
LINE
  8
_0-0_
  6
CONTINUOUS
 62
    7
 10
1642.2012474177886
 20
4085.0001260764811
 11
1642.2012474177886
 21
4060.0000047131398
  0
LINE
  8
_0-0_
  6
CONTINUOUS
 62
    7
 10
1642.2012474177886
 20
4060.0000047131398
 11
1617.2013010297501
 21
4060.0000047131398
  0
LINE
  8
_0-0_
  6
CONTINUOUS
 62
    7
 10
1642.2012474177886
 20
4100.0000589142437
 11
1617.2013010297501
 21
4100.0000589142437
  0
LINE
  8
_0-0_
  6
CONTINUOUS
 62
    7
 10
1642.2012474177886
 20
4125.0001802775851
 11
1642.2012474177886
 21
4100.0000589142437
  0
LINE
  8
_0-0_
  6
CONTINUOUS
 62
    7
 10
1617.2013010297501
 20
4125.0001802775851
 11
1642.2012474177886
 21
4125.0001802775851
  0
LINE
  8
_0-0_
  6
CONTINUOUS
 62
    7
 10
1617.2013010297501
 20
4100.0000589142437
 11
1617.2013010297501
 21
4125.0001802775851
  0
LINE
  8
_0-0_
  6
CONTINUOUS
 62
    7
 10
1573.204242234985
 20
4072.000160953713
 11
1603.2042391419873
 21
4072.000160953713
  0
LINE
  8
_0-0_
  6
CONTINUOUS
 62
    7
 10
1573.204242234985
 20
4151.9999194053153
 11
1573.204242234985
 21
4072.000160953713
  0
LINE
  8
_0-0_
  6
CONTINUOUS
 62
    7
 10
1573.204242234985
 20
4112.0002151548169
 11
1603.2042391419873
 21
4112.0002151548169
  0
TEXT
  8
_0-0_
 62
    7
 10
1656.1019924708776
 20
4100.0000589142437
 40
25
 41
1.2
 50
0
  1
125mm厚
  0
TEXT
  8
_0-0_
 62
    7
 10
1656.1019924708776
 20
4060.0000047131398
 40
25
 41
1.2
 50
0
  1
150mm厚
  0
LINE
  8
_0-0_
  6
CONTINUOUS
 62
    7
 10
1617.2013010297501
 20
4140.0001131153476
 11
1617.2013010297501
 21
4164.9998845280825
  0
LINE
  8
_0-0_
  6
CONTINUOUS
 62
    7
 10
1617.2013010297501
 20
4164.9998845280825
 11
1642.2012474177886
 21
4164.9998845280825
  0
LINE
  8
_0-0_
  6
CONTINUOUS
 62
    7
 10
1642.2012474177886
 20
4164.9998845280825
 11
1642.2012474177886
 21
4140.0001131153476
  0
LINE
  8
_0-0_
  6
CONTINUOUS
 62
    7
 10
1642.2012474177886
 20
4140.0001131153476
 11
1617.2013010297501
 21
4140.0001131153476
  0
LINE
  8
_0-0_
  6
CONTINUOUS
 62
    7
 10
1543.2042453279826
 20
4151.9999194053153
 11
1603.2042391419873
 21
4151.9999194053153
  0
LINE
  8
_0-0_
  6
CONTINUOUS
 62
    7
 10
1465.0000178215589
 20
4140.0001131153476
 11
1440.0000058177818
 21
4140.0001131153476
  0
LINE
  8
_0-0_
  6
CONTINUOUS
 62
    7
 10
1465.0000178215589
 20
4164.9998845280825
 11
1465.0000178215589
 21
4140.0001131153476
  0
LINE
  8
_0-0_
  6
CONTINUOUS
 62
    7
 10
1440.0000058177818
 20
4164.9998845280825
 11
1465.0000178215589
 21
4164.9998845280825
  0
LINE
  8
_0-0_
  6
CONTINUOUS
 62
    7
 10
1440.0000058177818
 20
4140.0001131153476
 11
1440.0000058177818
 21
4164.9998845280825
  0
TEXT
  8
_0-0_
 62
    7
 10
1475.0000064069241
 20
4140.0001131153476
 40
25
 41
1.2
 50
0
  1
外壁
  0
TEXT
  8
_0-0_
 62
    7
 10
1656.1019924708776
 20
4140.0001131153476
 40
25
 41
1.2
 50
0
  1
100mm厚
  0
TEXT
  8
_0-0_
 62
    7
 10
1380.0000058177818
 20
4214.9998845280825
 40
25
 41
1.2
 50
0
  1
2 シポレックス（ＡＬＣ）パネル使用部位およびパネル厚
  0
LINE
  8
_0-0_
  6
CONTINUOUS
 62
    7
 10
1573.204242234985
 20
4032.0004567032151
 11
1603.2042391419873
 21
4032.0004567032151
  0
LINE
  8
_0-0_
  6
CONTINUOUS
 62
    7
 10
1573.204242234985
 20
3992.0004025021117
 11
1603.2042391419873
 21
3992.0004025021117
  0
LINE
  8
_0-0_
  6
CONTINUOUS
 62
    7
 10
1617.2013010297501
 20
4020.0003004626415
 11
1617.2013010297501
 21
4045.0004218259828
  0
LINE
  8
_0-0_
  6
CONTINUOUS
 62
    7
 10
1617.2013010297501
 20
4045.0004218259828
 11
1642.2012474177886
 21
4045.0004218259828
  0
LINE
  8
_0-0_
  6
CONTINUOUS
 62
    7
 10
1642.2012474177886
 20
4045.0004218259828
 11
1642.2012474177886
 21
4020.0003004626415
  0
LINE
  8
_0-0_
  6
CONTINUOUS
 62
    7
 10
1642.2012474177886
 20
4020.0003004626415
 11
1617.2013010297501
 21
4020.0003004626415
  0
LINE
  8
_0-0_
  6
CONTINUOUS
 62
    7
 10
1642.2012474177886
 20
3980.000246261538
 11
1617.2013010297501
 21
3980.000246261538
  0
LINE
  8
_0-0_
  6
CONTINUOUS
 62
    7
 10
1642.2012474177886
 20
4005.0003676248793
 11
1642.2012474177886
 21
3980.000246261538
  0
LINE
  8
_0-0_
  6
CONTINUOUS
 62
    7
 10
1617.2013010297501
 20
4005.0003676248793
 11
1642.2012474177886
 21
4005.0003676248793
  0
LINE
  8
_0-0_
  6
CONTINUOUS
 62
    7
 10
1617.2013010297501
 20
3980.000246261538
 11
1617.2013010297501
 21
4005.0003676248793
  0
LINE
  8
_0-0_
  6
CONTINUOUS
 62
    7
 10
1573.204242234985
 20
3952.0004025021117
 11
1603.2042391419873
 21
3952.0004025021117
  0
LINE
  8
_0-0_
  6
CONTINUOUS
 62
    7
 10
1642.2012474177886
 20
3940.000246261538
 11
1617.2013010297501
 21
3940.000246261538
  0
LINE
  8
_0-0_
  6
CONTINUOUS
 62
    7
 10
1642.2012474177886
 20
3965.0003676248793
 11
1642.2012474177886
 21
3940.000246261538
  0
LINE
  8
_0-0_
  6
CONTINUOUS
 62
    7
 10
1617.2013010297501
 20
3965.0003676248793
 11
1642.2012474177886
 21
3965.0003676248793
  0
LINE
  8
_0-0_
  6
CONTINUOUS
 62
    7
 10
1617.2013010297501
 20
3940.000246261538
 11
1617.2013010297501
 21
3965.0003676248793
  0
TEXT
  8
_0-0_
 62
    7
 10
1656.1019924708776
 20
4020.0003004626415
 40
25
 41
1.2
 50
0
  1
100mm厚（スリムアートパネル）
  0
TEXT
  8
_0-0_
 62
    7
 10
1656.1019924708776
 20
3980.000246261538
 40
25
 41
1.2
 50
0
  1
125mm厚（アートパネル）
  0
TEXT
  8
_0-0_
 62
    7
 10
1656.1019924708776
 20
3940.000246261538
 40
25
 41
1.2
 50
0
  1
150mm厚（アートパネル）
  0
LINE
  8
_0-0_
  6
CONTINUOUS
 62
    7
 10
2287.2013114870288
 20
4019.9999505120354
 11
2287.2013114870288
 21
4045.0000718753768
  0
LINE
  8
_0-0_
  6
CONTINUOUS
 62
    7
 10
2287.2013114870288
 20
4045.0000718753768
 11
2312.2012578750673
 21
4045.0000718753768
  0
LINE
  8
_0-0_
  6
CONTINUOUS
 62
    7
 10
2312.2012578750673
 20
4045.0000718753768
 11
2312.2012578750673
 21
4019.9999505120354
  0
LINE
  8
_0-0_
  6
CONTINUOUS
 62
    7
 10
2312.2012578750673
 20
4019.9999505120354
 11
2287.2013114870288
 21
4019.9999505120354
  0
LINE
  8
_0-0_
  6
CONTINUOUS
 62
    7
 10
2243.2042089484376
 20
4032.0001067526091
 11
2273.2042495992655
 21
4032.0001067526091
  0
LINE
  8
_0-0_
  6
CONTINUOUS
 62
    7
 10
2070.000005817782
 20
4140.0001131153476
 11
2070.000005817782
 21
4164.9998845280825
  0
LINE
  8
_0-0_
  6
CONTINUOUS
 62
    7
 10
2070.000005817782
 20
4164.9998845280825
 11
2095.000039693472
 21
4164.9998845280825
  0
LINE
  8
_0-0_
  6
CONTINUOUS
 62
    7
 10
2095.000039693472
 20
4164.9998845280825
 11
2095.000039693472
 21
4140.0001131153476
  0
LINE
  8
_0-0_
  6
CONTINUOUS
 62
    7
 10
2095.000039693472
 20
4140.0001131153476
 11
2070.000005817782
 21
4140.0001131153476
  0
LINE
  8
_0-0_
  6
CONTINUOUS
 62
    7
 10
2213.204255785261
 20
4151.9999194053153
 11
2273.2042495992655
 21
4151.9999194053153
  0
LINE
  8
_0-0_
  6
CONTINUOUS
 62
    7
 10
2243.2042089484376
 20
4112.0002151548169
 11
2273.2042495992655
 21
4112.0002151548169
  0
LINE
  8
_0-0_
  6
CONTINUOUS
 62
    7
 10
2243.2042089484376
 20
4151.9999194053153
 11
2243.2042089484376
 21
4032.0001067526091
  0
LINE
  8
_0-0_
  6
CONTINUOUS
 62
    7
 10
2243.2042089484376
 20
4072.000160953713
 11
2273.2042495992655
 21
4072.000160953713
  0
LINE
  8
_0-0_
  6
CONTINUOUS
 62
    7
 10
2312.2012578750673
 20
4140.0001131153476
 11
2287.2013114870288
 21
4140.0001131153476
  0
LINE
  8
_0-0_
  6
CONTINUOUS
 62
    7
 10
2312.2012578750673
 20
4164.9998845280825
 11
2312.2012578750673
 21
4140.0001131153476
  0
LINE
  8
_0-0_
  6
CONTINUOUS
 62
    7
 10
2287.2013114870288
 20
4164.9998845280825
 11
2312.2012578750673
 21
4164.9998845280825
  0
LINE
  8
_0-0_
  6
CONTINUOUS
 62
    7
 10
2287.2013114870288
 20
4140.0001131153476
 11
2287.2013114870288
 21
4164.9998845280825
  0
LINE
  8
_0-0_
  6
CONTINUOUS
 62
    7
 10
2287.2013114870288
 20
4100.0000589142437
 11
2287.2013114870288
 21
4125.0001802775851
  0
LINE
  8
_0-0_
  6
CONTINUOUS
 62
    7
 10
2287.2013114870288
 20
4125.0001802775851
 11
2312.2012578750673
 21
4125.0001802775851
  0
LINE
  8
_0-0_
  6
CONTINUOUS
 62
    7
 10
2312.2012578750673
 20
4125.0001802775851
 11
2312.2012578750673
 21
4100.0000589142437
  0
LINE
  8
_0-0_
  6
CONTINUOUS
 62
    7
 10
2312.2012578750673
 20
4100.0000589142437
 11
2287.2013114870288
 21
4100.0000589142437
  0
LINE
  8
_0-0_
  6
CONTINUOUS
 62
    7
 10
2312.2012578750673
 20
4060.0000047131398
 11
2287.2013114870288
 21
4060.0000047131398
  0
LINE
  8
_0-0_
  6
CONTINUOUS
 62
    7
 10
2312.2012578750673
 20
4085.0001260764811
 11
2312.2012578750673
 21
4060.0000047131398
  0
LINE
  8
_0-0_
  6
CONTINUOUS
 62
    7
 10
2287.2013114870288
 20
4085.0001260764811
 11
2312.2012578750673
 21
4085.0001260764811
  0
LINE
  8
_0-0_
  6
CONTINUOUS
 62
    7
 10
2287.2013114870288
 20
4060.0000047131398
 11
2287.2013114870288
 21
4085.0001260764811
  0
TEXT
  8
_0-0_
 62
    7
 10
2105.0000704761642
 20
4140.0001131153476
 40
25
 41
1.2
 50
0
  1
間仕切
  0
TEXT
  8
_0-0_
 62
    7
 10
2326.1019927654488
 20
4140.0001131153476
 40
25
 41
1.2
 50
0
  1
75mm厚
  0
TEXT
  8
_0-0_
 62
    7
 10
2326.1020029281558
 20
4100.0000589142437
 40
25
 41
1.2
 50
0
  1
100mm厚
  0
TEXT
  8
_0-0_
 62
    7
 10
2326.1020029281558
 20
4060.0000047131398
 40
25
 41
1.2
 50
0
  1
125mm厚
  0
TEXT
  8
_0-0_
 62
    7
 10
2326.1020029281558
 20
4019.9999505120354
 40
25
 41
1.2
 50
0
  1
150mm厚
  0
LINE
  8
_0-0_
  6
CONTINUOUS
 62
    7
 10
1573.204242234985
 20
3912.0004025021117
 11
1603.2042391419873
 21
3912.0004025021117
  0
LINE
  8
_0-0_
  6
CONTINUOUS
 62
    7
 10
1642.2012474177886
 20
3900.000246261538
 11
1617.2013010297501
 21
3900.000246261538
  0
LINE
  8
_0-0_
  6
CONTINUOUS
 62
    7
 10
1642.2012474177886
 20
3925.0003676248793
 11
1642.2012474177886
 21
3900.000246261538
  0
LINE
  8
_0-0_
  6
CONTINUOUS
 62
    7
 10
1617.2013010297501
 20
3925.0003676248793
 11
1642.2012474177886
 21
3925.0003676248793
  0
LINE
  8
_0-0_
  6
CONTINUOUS
 62
    7
 10
1617.2013010297501
 20
3900.000246261538
 11
1617.2013010297501
 21
3925.0003676248793
  0
LINE
  8
_0-0_
  6
CONTINUOUS
 62
    7
 10
1573.204242234985
 20
4072.000160953713
 11
1573.204242234985
 21
3912.0004025021117
  0
TEXT
  8
_0-0_
 62
    7
 10
1656.1019924708776
 20
3900.000246261538
 40
25
 41
1.2
 50
0
  1
175mm厚（アートパネル）
  0
LINE
  8
_0-0_
  6
CONTINUOUS
 62
    7
 10
1320.0000058177818
 20
4462.4998845280825
 11
3570.0001019216411
 21
4462.4998845280825
  0
LINE
  8
_0-0_
  6
CONTINUOUS
 62
    7
 10
3567.5000547902459
 20
4464.9998845280825
 11
1320.0000058177818
 21
4464.9998845280825
  0
LINE
  8
_0-0_
  6
CONTINUOUS
 62
    7
 10
3565.000182634154
 20
4764.9999410857563
 11
3565.000182634154
 21
4467.4999316594776
  0
LINE
  8
_0-0_
  6
CONTINUOUS
 62
    7
 10
3567.5000547902459
 20
4764.9999410857563
 11
3567.5000547902459
 21
4464.9998845280825
  0
TEXT
  8
_0-0_
 62
    7
 10
1409.8434286228019
 20
4696.6720852060207
 40
60
 41
1.6666666666666667
 50
0
  1
シポレックス屋根・床構法
  0
TEXT
  8
_0-0_
 62
    7
 10
1592.5001897038642
 20
4519.999871566949
 40
150
 41
1
 50
0
  1
敷設筋構法標準図
  0
LINE
  8
_0-0_
  6
CONTINUOUS
 62
    7
 10
4595.4998538926757
 20
4767.4999410857563
 11
4595.4998538926757
 21
1157.5000143603472
  0
LINE
  8
_0-0_
  6
CONTINUOUS
 62
    7
 10
5621.4998538926757
 20
4767.4999410857563
 11
5621.4998538926757
 21
1157.5000143603472
  0
LINE
  8
_0-0_
  6
CONTINUOUS
 62
    7
 10
3570.0001019216411
 20
4764.9999410857563
 11
3570.0001019216411
 21
1150.0000075852088
  0
LINE
  8
_0-0_
  6
CONTINUOUS
 62
    7
 10
3570.0001019216411
 20
3643.500014360347
 11
6647.4998538926766
 21
3643.500014360347
  0
LINE
  8
_0-0_
  6
CONTINUOUS
 62
    7
 10
6647.4998538926766
 20
3563.500014360347
 11
3570.0001019216415
 21
3563.500014360347
  0
LINE
  8
_0-0_
  6
CONTINUOUS
 62
    7
 10
3570.0001019216411
 20
2440.5000143603465
 11
6647.4998538926766
 21
2440.5000143603465
  0
LINE
  8
_0-0_
  6
CONTINUOUS
 62
    7
 10
6647.4998538926766
 20
2360.5000143603465
 11
3570.0001019216415
 21
2360.5000143603465
  0
LINE
  8
_0-0_
  6
CONTINUOUS
 62
    7
 10
3570.0001019216411
 20
1237.5000143603472
 11
6647.4998538926766
 21
1237.5000143603472
  0
TEXT
  8
_0-0_
 62
    7
 10
5291.6249245072304
 20
977.13538320042994
 40
40
 41
1
 50
0
  1
敷設筋構法標準図
  0
LINE
  8
_0-0_
  6
CONTINUOUS
 62
    7
 10
3737.1073784380906
 20
4114.7005871180845
 11
4026.1072276176274
 21
4114.7005871180845
  0
LINE
  8
_0-0_
  6
CONTINUOUS
 62
    7
 10
3737.1073784380906
 20
4114.7005871180845
 11
4337.107351573196
 21
4114.7005871180845
  0
LINE
  8
_0-0_
  6
CONTINUOUS
 62
    7
 10
4337.107351573196
 20
4064.7007643321285
 11
3737.1073784380906
 21
4064.7007643321285
  0
LINE
  8
_0-0_
  6
CONTINUOUS
 62
    7
 10
4337.107351573196
 20
4052.7008530569792
 11
3737.1073784380906
 21
4052.7008530569792
  0
LINE
  8
_0-0_
  6
DASHED1
 62
    7
 10
3737.1073784380906
 20
4111.2005911242532
 11
4337.107351573196
 21
4111.2005911242532
  0
LINE
  8
_0-0_
  6
DASHED1
 62
    7
 10
4337.107351573196
 20
4067.7007159046207
 11
3737.1073784380906
 21
4067.7007159046207
  0
LINE
  8
_0-0_
  6
CONTINUOUS
 62
    4
 10
3737.1071684677277
 20
4364.7006459144995
 11
4037.1069450649156
 21
4364.7006459144995
  0
LINE
  8
_0-0_
  6
CONTINUOUS
 62
    4
 10
3737.1071684677277
 20
4364.7006459144995
 11
3755.5192596971401
 21
4372.4972654623398
  0
LINE
  8
_0-0_
  6
CONTINUOUS
 62
    4
 10
3755.5192596971401
 20
4372.4972654623398
 11
3761.106151136571
 21
4364.7006459144995
  0
LINE
  8
_0-0_
  6
CONTINUOUS
 62
    7
 10
3757.1070555880369
 20
4114.7005871180845
 11
3857.107331071039
 21
4214.7007576159049
  0
LINE
  8
_0-0_
  6
CONTINUOUS
 62
    7
 10
3737.1071684677277
 20
4214.7007576159049
 11
4028.1069853622594
 21
4214.7007576159049
  0
LINE
  8
_0-0_
  6
CONTINUOUS
 62
    7
 10
4337.107351573196
 20
3777.1188450191912
 11
3737.1073784380906
 21
3777.1188450191912
  0
LINE
  8
_0-0_
  6
CONTINUOUS
 62
    7
 10
4337.107351573196
 20
3765.1189337440424
 11
3737.1073784380906
 21
3765.1189337440424
  0
TEXT
  8
_1-0_
 62
    7
 10
2487.7977605399933
 20
3930.6960055082463
 40
30
 41
1
 50
0
  1
フックボルト
  0
TEXT
  8
_1-0_
 62
    7
 10
2487.7977605399933
 20
4346.0940643074891
 40
30
 41
1
 50
0
  1
マルザ５０
  0
TEXT
  8
_0-0_
 62
    7
 10
1410.0000058177818
 20
3534.9998845280829
 40
25
 41
1.2
 50
0
  1
(1)シポレックスパネル取付構法
  0
LINE
  8
_0-0_
  6
CONTINUOUS
 62
    7
 10
1440.0000058177818
 20
3459.9999381400448
 11
1440.0000058177818
 21
3484.9998845280829
  0
LINE
  8
_0-0_
  6
CONTINUOUS
 62
    7
 10
1440.0000058177818
 20
3484.9998845280829
 11
1465.0000178215589
 21
3484.9998845280829
  0
LINE
  8
_0-0_
  6
CONTINUOUS
 62
    7
 10
1465.0000178215589
 20
3484.9998845280829
 11
1465.0000178215589
 21
3459.9999381400448
  0
LINE
  8
_0-0_
  6
CONTINUOUS
 62
    7
 10
1465.0000178215589
 20
3459.9999381400448
 11
1440.0000058177818
 21
3459.9999381400448
  0
TEXT
  8
_0-0_
 62
    7
 10
2397.2315844237573
 20
3187.6845023254637
 40
10
 41
1
 50
0
  1
2
  0
TEXT
  8
_0-0_
 62
    7
 10
2397.2315844237573
 20
3227.6845565265671
 40
10
 41
1
 50
0
  1
2
  0
TEXT
  8
_0-0_
 62
    7
 10
2397.2315844237573
 20
3267.6844357523678
 40
10
 41
1
 50
0
  1
2
  0
TEXT
  8
_0-0_
 62
    7
 10
2323.2382842104407
 20
3294.9998303269786
 40
25
 41
1.2
 50
0
  1
 N/m
  0
TEXT
  8
_0-0_
 62
    7
 10
2323.2382842104407
 20
3174.9998426989705
 40
25
 41
1.2
 50
0
  1
 N/m
  0
TEXT
  8
_0-0_
 62
    7
 10
2323.2382842104407
 20
3214.999896900074
 40
25
 41
1.2
 50
0
  1
 N/m
  0
TEXT
  8
_0-0_
 62
    7
 10
2323.2382842104407
 20
3254.9997761258746
 40
25
 41
1.2
 50
0
  1
 N/m
  0
TEXT
  8
_0-0_
 62
    7
 10
2397.2315844237573
 20
3147.6845023254637
 40
10
 41
1
 50
0
  1
2
  0
TEXT
  8
_0-0_
 62
    7
 10
2323.2382842104407
 20
3134.9998426989705
 40
25
 41
1.2
 50
0
  1
 N/m
  0
LINE
  8
_0-0_
  6
CONTINUOUS
 62
    7
 10
2133.273065559652
 20
3090.3143540312426
 11
2279.9999651669532
 21
3090.3143540312426
  0
TEXT
  8
_0-0_
 62
    7
 10
2397.2315844237573
 20
3107.6845023254637
 40
10
 41
1
 50
0
  1
2
  0
TEXT
  8
_0-0_
 62
    7
 10
2323.2382842104407
 20
3094.9998426989705
 40
25
 41
1.2
 50
0
  1
 N/m
  0
TEXT
  8
_0-0_
 62
    7
 10
1405.0000063332811
 20
3030.0001396267567
 40
25
 41
1.2
 50
0
  1
(3)パネル特殊仕様
  0
TEXT
  8
_0-0_
 62
    7
 10
2397.2315844237573
 20
3307.6844899534717
 40
10
 41
1
 50
0
  1
2
  0
TEXT
  8
_0-0_
 62
    7
 10
1380.0000058177818
 20
3584.9998845280829
 40
25
 41
1.2
 50
0
  1
3 シポレックス（ＡＬＣ）パネル屋根・床仕様
  0
TEXT
  8
_0-0_
 62
    7
 10
1475.0000033139258
 20
3459.9999381400448
 40
25
 41
1.2
 50
0
  1
屋根・床構法
  0
TEXT
  8
_0-0_
 62
    7
 10
1811.1019813508142
 20
3379.9999505120354
 40
25
 41
1.2
 50
0
  1
その他
  0
TEXT
  8
_0-0_
 62
    7
 10
1929.8645584371559
 20
3379.9999505120354
 40
25
 41
1.2
 50
0
  1
(
  0
TEXT
  8
_0-0_
 62
    7
 10
2421.6713847893088
 20
3379.9999505120354
 40
25
 41
1.3999999999999999
 50
0
  1
)
  0
LINE
  8
_0-0_
  6
CONTINUOUS
 62
    7
 10
1772.2013016188928
 20
3379.9999505120354
 11
1772.2013016188928
 21
3404.999896900074
  0
LINE
  8
_0-0_
  6
CONTINUOUS
 62
    7
 10
1772.2013016188928
 20
3404.999896900074
 11
1797.2012480069313
 21
3404.999896900074
  0
LINE
  8
_0-0_
  6
CONTINUOUS
 62
    7
 10
1797.2012480069313
 20
3404.999896900074
 11
1797.2012480069313
 21
3379.9999505120354
  0
LINE
  8
_0-0_
  6
CONTINUOUS
 62
    7
 10
1797.2012480069313
 20
3379.9999505120354
 11
1772.2013016188928
 21
3379.9999505120354
  0
LINE
  8
_0-0_
  6
CONTINUOUS
 62
    7
 10
1728.2041990803014
 20
3391.9999317773063
 11
1758.2042397311295
 21
3391.9999317773063
  0
LINE
  8
_0-0_
  6
CONTINUOUS
 62
    7
 10
1728.2041990803014
 20
3471.9999194053153
 11
1728.2041990803014
 21
3391.9999317773063
  0
LINE
  8
_0-0_
  6
CONTINUOUS
 62
    7
 10
1698.2042459171253
 20
3471.9999194053153
 11
1758.2042397311295
 21
3471.9999194053153
  0
LINE
  8
_0-0_
  6
CONTINUOUS
 62
    7
 10
1772.2013016188928
 20
3459.9999381400448
 11
1772.2013016188928
 21
3484.9998845280829
  0
LINE
  8
_0-0_
  6
CONTINUOUS
 62
    7
 10
1772.2013016188928
 20
3484.9998845280829
 11
1797.2012480069313
 21
3484.9998845280829
  0
LINE
  8
_0-0_
  6
CONTINUOUS
 62
    7
 10
1797.2012480069313
 20
3484.9998845280829
 11
1797.2012480069313
 21
3459.9999381400448
  0
LINE
  8
_0-0_
  6
CONTINUOUS
 62
    7
 10
1797.2012480069313
 20
3459.9999381400448
 11
1772.2013016188928
 21
3459.9999381400448
  0
TEXT
  8
_0-0_
 62
    7
 10
1811.1019939437338
 20
3459.9999381400448
 40
25
 41
1.2
 50
0
  1
敷設筋構法（ＡＬＣ協会　ＡＬＣ取付け構法）
  0
TEXT
  8
_0-0_
 62
    7
 10
1410.0000058177818
 20
3334.9998845280829
 40
25
 41
1.2
 50
0
  1
(2)設計荷重
  0
TEXT
  8
_0-0_
 62
    7
 10
1460.0000070697092
 20
3289.9999110394924
 40
25
 41
1.2
 50
0
  1
床パネル設計荷重
  0
TEXT
  8
_0-0_
 62
    7
 10
1460.0000070697092
 20
3249.999856838389
 40
25
 41
1.2
 50
0
  1
屋根パネル設計荷重
  0
TEXT
  8
_0-0_
 62
    7
 10
1772.3787343147544
 20
3251.426187251689
 40
25
 41
1.2
 50
0
  1
吹上げ荷重
  0
TEXT
  8
_0-0_
 62
    7
 10
1953.2730372808151
 20
3169.9999234114835
 40
25
 41
1.2
 50
0
  1
（　　　）
  0
TEXT
  8
_0-0_
 62
    7
 10
1953.2730372808151
 20
3129.9999234114835
 40
25
 41
1.2
 50
0
  1
（　　　）
  0
TEXT
  8
_0-0_
 62
    7
 10
1953.2730372808151
 20
3089.9999234114835
 40
25
 41
1.2
 50
0
  1
（　　　）
  0
TEXT
  8
_0-0_
 62
    7
 10
1953.2730372808151
 20
3249.999856838389
 40
25
 41
1.2
 50
0
  1
　一般部
  0
TEXT
  8
_0-0_
 62
    7
 10
1953.2730372808151
 20
3209.9998026372846
 40
25
 41
1.2
 50
0
  1
　周辺部
  0
LINE
  8
_0-0_
  6
CONTINUOUS
 62
    7
 10
2133.273065559652
 20
3289.9999110394924
 11
2279.9999651669532
 21
3289.9999110394924
  0
LINE
  8
_0-0_
  6
CONTINUOUS
 62
    7
 10
2133.273065559652
 20
3249.999856838389
 11
2279.9999651669532
 21
3249.999856838389
  0
LINE
  8
_0-0_
  6
CONTINUOUS
 62
    7
 10
2133.273065559652
 20
3209.9998026372846
 11
2279.9999651669532
 21
3209.9998026372846
  0
LINE
  8
_0-0_
  6
CONTINUOUS
 62
    7
 10
2133.273065559652
 20
3169.9999234114835
 11
2279.9999651669532
 21
3169.9999234114835
  0
LINE
  8
_0-0_
  6
CONTINUOUS
 62
    7
 10
2133.273065559652
 20
3129.9999234114835
 11
2279.9999651669532
 21
3129.9999234114835
  0
LINE
  8
_0-0_
  6
CONTINUOUS
 62
    7
 10
1530.0000029457124
 20
2980.0000854256532
 11
1530.0000029457124
 21
3005.0000318136917
  0
LINE
  8
_0-0_
  6
CONTINUOUS
 62
    7
 10
1530.0000029457124
 20
3005.0000318136917
 11
1555.0000149494895
 21
3005.0000318136917
  0
LINE
  8
_0-0_
  6
CONTINUOUS
 62
    7
 10
1555.0000149494895
 20
3005.0000318136917
 11
1555.0000149494895
 21
2980.0000854256532
  0
LINE
  8
_0-0_
  6
CONTINUOUS
 62
    7
 10
1555.0000149494895
 20
2980.0000854256532
 11
1530.0000029457124
 21
2980.0000854256532
  0
TEXT
  8
_0-0_
 62
    7
 10
1564.9999988953577
 20
2980.0000854256532
 40
25
 41
1.2
 50
0
  1
ドライパネル（撥水性を持たせたパネル）
  0
LINE
  8
_0-0_
  6
CONTINUOUS
 62
    7
 10
1530.0000029457124
 20
2930.0000854256532
 11
1530.0000029457124
 21
2955.0000318136917
  0
LINE
  8
_0-0_
  6
CONTINUOUS
 62
    7
 10
1530.0000029457124
 20
2955.0000318136917
 11
1555.0000149494895
 21
2955.0000318136917
  0
LINE
  8
_0-0_
  6
CONTINUOUS
 62
    7
 10
1555.0000149494895
 20
2955.0000318136917
 11
1555.0000149494895
 21
2930.0000854256532
  0
LINE
  8
_0-0_
  6
CONTINUOUS
 62
    7
 10
1555.0000149494895
 20
2930.0000854256532
 11
1530.0000029457124
 21
2930.0000854256532
  0
TEXT
  8
_0-0_
 62
    7
 10
1564.9999988953577
 20
2930.0000854256532
 40
25
 41
1.2
 50
0
  1
そ　の　他　（　　　　　　　　　　　　　　　　　　　　　）
  0
TEXT
  8
_0-0_
 62
    7
 10
1380.0000058177818
 20
2844.9998845280829
 40
40
 41
1
 50
0
  1
関連資材仕様
  0
LINE
  8
_0-0_
  6
CONTINUOUS
 62
    7
 10
1361.8184944421193
 20
2879.0075265988303
 11
1338.8185157690759
 21
2879.0075265988303
  0
LINE
  8
_0-0_
  6
CONTINUOUS
 62
    7
 10
1361.8184944421193
 20
2855.0075640682894
 11
1338.8185157690759
 21
2855.0075640682894
  0
LINE
  8
_0-0_
  6
CONTINUOUS
 62
    7
 10
1357.8185590121302
 20
2855.0075640682894
 11
1357.8185590121302
 21
2879.0075265988303
  0
LINE
  8
_0-0_
  6
CONTINUOUS
 62
    7
 10
1343.8185225442135
 20
2855.0075640682894
 11
1343.8185225442135
 21
2879.0075265988303
  0
LINE
  8
_0-0_
  6
CONTINUOUS
 62
    7
 10
1355.8185038094844
 20
2855.0075640682894
 11
1355.8185038094844
 21
2879.0075265988303
  0
LINE
  8
_0-0_
  6
CONTINUOUS
 62
    7
 10
1345.8184902592086
 20
2855.0075640682894
 11
1345.8184902592086
 21
2879.0075265988303
  0
LINE
  8
_0-0_
  6
CONTINUOUS
 62
    7
 10
1465.0000178215589
 20
2704.9998845280829
 11
1440.0000058177818
 21
2704.9998845280829
  0
LINE
  8
_0-0_
  6
CONTINUOUS
 62
    7
 10
1465.0000178215589
 20
2729.9996559408182
 11
1465.0000178215589
 21
2704.9998845280829
  0
LINE
  8
_0-0_
  6
CONTINUOUS
 62
    7
 10
1440.0000058177818
 20
2729.9996559408182
 11
1465.0000178215589
 21
2729.9996559408182
  0
LINE
  8
_0-0_
  6
CONTINUOUS
 62
    7
 10
1440.0000058177818
 20
2704.9998845280829
 11
1440.0000058177818
 21
2729.9996559408182
  0
LINE
  8
_0-0_
  6
CONTINUOUS
 62
    7
 10
1465.0000178215589
 20
2744.9998845280829
 11
1440.0000058177818
 21
2744.9998845280829
  0
LINE
  8
_0-0_
  6
CONTINUOUS
 62
    7
 10
1465.0000178215589
 20
2769.9996559408182
 11
1465.0000178215589
 21
2744.9998845280829
  0
LINE
  8
_0-0_
  6
CONTINUOUS
 62
    7
 10
1440.0000058177818
 20
2769.9996559408182
 11
1465.0000178215589
 21
2769.9996559408182
  0
LINE
  8
_0-0_
  6
CONTINUOUS
 62
    7
 10
1440.0000058177818
 20
2744.9998845280829
 11
1440.0000058177818
 21
2769.9996559408182
  0
TEXT
  8
_0-0_
 62
    7
 10
1380.0000058177818
 20
2794.9998845280829
 40
25
 41
1.3999999999999999
 50
0
  1
１　防錆塗料（下地鋼材、関連補強鋼材塗装用）
  0
TEXT
  8
_0-0_
 62
    7
 10
1475.0000064069241
 20
2744.9998845280829
 40
25
 41
1.2
 50
0
  1
塗料種類（　　　　　　　　）JIS規格（　　　　　　　　）
  0
TEXT
  8
_0-0_
 62
    7
 10
1476.2550215911319
 20
2706.6161885610318
 40
25
 41
1.2
 50
0
  1
その他（　　　　　　　　　　　　　　　　　　　　　　　　）
  0
LINE
  8
_0-0_
  6
CONTINUOUS
 62
    7
 10
4185.6777420670769
 20
1798.500014360347
 11
4085.6776765544382
 21
1698.4997388773443
  0
LINE
  8
_0-0_
  6
CONTINUOUS
 62
    7
 10
4195.6777906124134
 20
1798.500014360347
 11
4095.6777250997748
 21
1698.4997388773443
  0
LINE
  8
_0-0_
  6
DASHED1
 62
    7
 10
4185.6777420670769
 20
1782.4998526996628
 11
4185.6777420670769
 21
1773.4998929970052
  0
LINE
  8
_0-0_
  6
DASHED1
 62
    7
 10
4005.6777081324731
 20
1707.5000135355476
 11
4005.6777081324731
 21
1788.4997558446466
  0
LINE
  8
_0-0_
  6
DASHED1
 62
    7
 10
4014.6776678351298
 20
1788.4997558446466
 11
4014.6776678351298
 21
1713.4999166805312
  0
LINE
  8
_0-0_
  6
DASHED1
 62
    7
 10
4035.6776437981193
 20
1707.5000135355476
 11
4020.6775709801141
 21
1707.5000135355476
  0
LINE
  8
_0-0_
  6
DASHED1
 62
    7
 10
4035.6776437981193
 20
1698.4997388773443
 11
4035.6776437981193
 21
1707.5000135355476
  0
LINE
  8
_0-0_
  6
DASHED1
 62
    7
 10
4014.6776678351298
 20
1698.4997388773443
 11
4014.6776678351298
 21
1701.4995854646543
  0
LINE
  8
_0-0_
  6
DASHED1
 62
    7
 10
4017.6775144224398
 20
1698.4997388773443
 11
4017.6775144224398
 21
1701.4995854646543
  0
LINE
  8
_0-0_
  6
DASHED1
 62
    7
 10
4020.6775709801141
 20
1698.4997388773443
 11
4020.6775709801141
 21
1701.4995854646543
  0
LINE
  8
_0-0_
  6
DASHED1
 62
    7
 10
4023.6778375081512
 20
1698.4997388773443
 11
4023.6778375081512
 21
1701.4995854646543
  0
LINE
  8
_0-0_
  6
DASHED1
 62
    7
 10
4026.6778940658251
 20
1698.4997388773443
 11
4026.6778940658251
 21
1701.4995854646543
  0
LINE
  8
_0-0_
  6
DASHED1
 62
    7
 10
4029.6775306827712
 20
1698.4997388773443
 11
4029.6775306827712
 21
1701.4995854646543
  0
LINE
  8
_0-0_
  6
DASHED1
 62
    7
 10
4032.6777972108089
 20
1698.4997388773443
 11
4032.6777972108089
 21
1701.4995854646543
  0
LINE
  8
_0-0_
  6
CONTINUOUS
 62
    7
 10
3991.6777241571472
 20
1698.4997388773443
 11
4079.677563439091
 21
1698.4997388773443
  0
LINE
  8
_0-0_
  6
CONTINUOUS
 62
    7
 10
3991.6777241571472
 20
1694.9997428835129
 11
4079.677563439091
 21
1694.9997428835129
  0
ARC
  8
_0-0_
  6
DASHED1
 62
    7
 10
4010.1777929689833
 20
1788.4997558446466
 40
4.4999978956568656
 50
0
 51
180
  0
ARC
  8
_0-0_
  6
DASHED1
 62
    7
 10
4010.1777929689833
 20
1768.4998687243369
 40
4.4999978956568656
 50
180
 51
0
  0
ARC
  8
_0-0_
  6
DASHED1
 62
    7
 10
4014.6776678351298
 20
1707.5000135355476
 40
8.9999998922973994
 50
180
 51
270
  0
ARC
  8
_0-0_
  6
DASHED1
 62
    7
 10
4020.6775709801141
 20
1713.4999166805312
 40
6.0000007483950002
 50
180
 51
270
  0
ARC
  8
_0-0_
  6
CONTINUOUS
 62
    7
 10
4005.6777081324731
 20
1698.4997388773443
 40
4.9999980263728432
 50
90
 51
180
  0
ARC
  8
_0-0_
  6
CONTINUOUS
 62
    7
 10
4005.6777081324731
 20
1698.4997388773443
 40
3.0000003741975001
 50
90
 51
180
  0
ARC
  8
_0-0_
  6
CONTINUOUS
 62
    7
 10
4079.677563439091
 20
1692.4999407175426
 40
6.0000007483950002
 50
0
 51
90
  0
ARC
  8
_0-0_
  6
CONTINUOUS
 62
    7
 10
4079.677563439091
 20
1692.4999407175426
 40
2.4999994232847884
 50
0
 51
90
  0
ARC
  8
_0-0_
  6
CONTINUOUS
 62
    7
 10
3991.6777241571472
 20
1692.4999407175426
 40
6.0000007483950002
 50
90
 51
180
  0
ARC
  8
_0-0_
  6
CONTINUOUS
 62
    7
 10
3991.6777241571472
 20
1692.4999407175426
 40
2.4999994232847884
 50
90
 51
180
  0
LINE
  8
_0-0_
  6
CONTINUOUS
 62
    4
 10
4174.9560583819857
 20
3952.4898723139245
 11
4194.4731351182927
 21
3952.4898723139245
  0
LINE
  8
_0-0_
  6
CONTINUOUS
 62
    7
 10
4337.107351573196
 20
4114.7005871180845
 11
4048.1072924232958
 21
4114.7005871180845
  0
LINE
  8
_0-0_
  6
DASHED1
 62
    7
 10
4012.1072436423015
 20
4207.7007656282422
 11
4062.107066428257
 21
4207.7007656282422
  0
LINE
  8
_0-0_
  6
DASHED1
 62
    7
 10
4030.1071630476167
 20
4199.7006847979001
 11
4044.1073569933064
 21
4199.7006847979001
  0
LINE
  8
_0-0_
  6
DASHED1
 62
    7
 10
4044.1073569933064
 20
4188.7007573802484
 11
4030.1071630476167
 21
4188.7007573802484
  0
LINE
  8
_0-0_
  6
CONTINUOUS
 62
    4
 10
4037.1069450649156
 20
4364.7006459144995
 11
4337.107351573196
 21
4364.7006459144995
  0
LINE
  8
_0-0_
  6
CONTINUOUS
 62
    4
 10
4037.1069450649156
 20
4364.7006459144995
 11
4037.1069450649156
 21
4257.2808576570042
  0
LINE
  8
_0-0_
  6
CONTINUOUS
 62
    4
 10
4337.107351573196
 20
4364.7006459144995
 11
4318.695260343783
 21
4372.4972654623398
  0
LINE
  8
_0-0_
  6
CONTINUOUS
 62
    4
 10
4318.695260343783
 20
4372.4972654623398
 11
4313.1085788747159
 21
4364.7006459144995
  0
LINE
  8
_0-0_
  6
CONTINUOUS
 62
    7
 10
3767.1071041333739
 20
4114.7005871180845
 11
3867.1069596756479
 21
4214.7007576159049
  0
LINE
  8
_0-0_
  6
CONTINUOUS
 62
    7
 10
4317.1070445121586
 20
4214.7007576159049
 11
4217.1069789995199
 21
4114.7005871180845
  0
LINE
  8
_0-0_
  6
CONTINUOUS
 62
    7
 10
4307.1072059371863
 20
4214.7007576159049
 11
4207.1071404245477
 21
4114.7005871180845
  0
LINE
  8
_0-0_
  6
DASHED1
 62
    7
 10
4012.1072436423015
 20
4114.7005871180845
 11
4012.1072436423015
 21
4207.7007656282422
  0
LINE
  8
_0-0_
  6
DASHED1
 62
    7
 10
4062.107066428257
 20
4207.7007656282422
 11
4062.107066428257
 21
4114.7005871180845
  0
LINE
  8
_0-0_
  6
CONTINUOUS
 62
    7
 10
4048.1072924232958
 20
4114.7005871180845
 11
4037.1069450649156
 21
4125.7006195209178
  0
LINE
  8
_0-0_
  6
CONTINUOUS
 62
    7
 10
4026.1072276176274
 20
4114.7005871180845
 11
4037.1069450649156
 21
4125.7006195209178
  0
LINE
  8
_0-0_
  6
CONTINUOUS
 62
    7
 10
4015.1070902296119
 20
4114.7005871180845
 11
4015.1070902296119
 21
4119.7005064055711
  0
LINE
  8
_0-0_
  6
CONTINUOUS
 62
    7
 10
4018.1071467872857
 20
4114.7005871180845
 11
4018.1071467872857
 21
4119.7005064055711
  0
LINE
  8
_0-0_
  6
CONTINUOUS
 62
    7
 10
4021.10720334496
 20
4114.7005871180845
 11
4021.10720334496
 21
4119.7005064055711
  0
LINE
  8
_0-0_
  6
CONTINUOUS
 62
    7
 10
4024.1072599026338
 20
4114.7005871180845
 11
4024.1072599026338
 21
4119.7005064055711
  0
LINE
  8
_0-0_
  6
CONTINUOUS
 62
    7
 10
4027.1071064899434
 20
4114.7005871180845
 11
4027.1071064899434
 21
4119.7005064055711
  0
LINE
  8
_0-0_
  6
CONTINUOUS
 62
    7
 10
4030.1071630476167
 20
4114.7005871180845
 11
4030.1071630476167
 21
4119.7005064055711
  0
LINE
  8
_0-0_
  6
CONTINUOUS
 62
    7
 10
4033.1070096349272
 20
4114.7005871180845
 11
4033.1070096349272
 21
4119.7005064055711
  0
LINE
  8
_0-0_
  6
CONTINUOUS
 62
    7
 10
4036.1070661926005
 20
4114.7005871180845
 11
4036.1070661926005
 21
4119.7005064055711
  0
LINE
  8
_0-0_
  6
CONTINUOUS
 62
    7
 10
4039.1073327206377
 20
4114.7005871180845
 11
4039.1073327206377
 21
4119.7005064055711
  0
LINE
  8
_0-0_
  6
CONTINUOUS
 62
    7
 10
4042.1071793079477
 20
4114.7005871180845
 11
4042.1071793079477
 21
4119.7005064055711
  0
LINE
  8
_0-0_
  6
CONTINUOUS
 62
    4
 10
4387.1073843295153
 20
4064.7007643321285
 11
4387.1073843295153
 21
4114.7005871180845
  0
LINE
  8
_0-0_
  6
CONTINUOUS
 62
    4
 10
4347.1074001185325
 20
4064.7007643321285
 11
4387.1073843295153
 21
4064.7007643321285
  0
LINE
  8
_0-0_
  6
CONTINUOUS
 62
    4
 10
4347.1074001185325
 20
4114.7005871180845
 11
4387.1073843295153
 21
4114.7005871180845
  0
LINE
  8
_0-0_
  6
CONTINUOUS
 62
    4
 10
4387.1073843295153
 20
4114.7005871180845
 11
4387.1073843295153
 21
4214.7007576159049
  0
LINE
  8
_0-0_
  6
CONTINUOUS
 62
    4
 10
4347.1074001185325
 20
4214.7007576159049
 11
4387.1073843295153
 21
4214.7007576159049
  0
LINE
  8
_0-0_
  6
CONTINUOUS
 62
    4
 10
4387.1073843295153
 20
4214.7007576159049
 11
4387.1073843295153
 21
4197.2007776467481
  0
LINE
  8
_0-0_
  6
CONTINUOUS
 62
    7
 10
4028.1069853622594
 20
4214.7007576159049
 11
4023.1069610895902
 21
4173.700579577061
  0
LINE
  8
_0-0_
  6
CONTINUOUS
 62
    7
 10
4023.1069610895902
 20
4173.700579577061
 11
4037.1069450649156
 21
4173.700579577061
  0
LINE
  8
_0-0_
  6
CONTINUOUS
 62
    7
 10
4037.1069450649156
 20
4125.7006195209178
 11
4037.1069450649156
 21
4173.700579577061
  0
LINE
  8
_0-0_
  6
CONTINUOUS
 62
    7
 10
4051.1071390106054
 20
4173.700579577061
 11
4037.1069450649156
 21
4173.700579577061
  0
LINE
  8
_0-0_
  6
CONTINUOUS
 62
    7
 10
4337.107351573196
 20
4214.7007576159049
 11
4046.1071147379375
 21
4214.7007576159049
  0
LINE
  8
_0-0_
  6
CONTINUOUS
 62
    7
 10
4046.1071147379375
 20
4214.7007576159049
 11
4051.1071390106054
 21
4173.700579577061
  0
ARC
  8
_0-0_
  6
DASHED1
 62
    7
 10
4030.1071630476167
 20
4194.2007210890742
 40
5.4999997974822881
 50
90
 51
270
  0
ARC
  8
_0-0_
  6
DASHED1
 62
    7
 10
4044.1073569933064
 20
4194.2007210890742
 40
5.4999997974822881
 50
270
 51
90
  0
CIRCLE
  8
_0-0_
  6
CONTINUOUS
 62
    7
 10
4037.1069450649156
 20
4194.2007210890742
 40
4.4999983057552324
  0
POINT
  8
_0-0_
 62
    4
 10
4037.1069450649156
 20
4364.7006459144995
  0
POINT
  8
_0-0_
 62
    4
 10
4387.1073843295153
 20
4064.7007643321285
  0
POINT
  8
_0-0_
 62
    4
 10
4387.1073843295153
 20
4114.7005871180845
  0
POINT
  8
_0-0_
 62
    4
 10
4387.1073843295153
 20
4214.7007576159049
  0
LINE
  8
_0-0_
  6
CONTINUOUS
 62
    7
 10
4388.7758717241368
 20
2913.499955563932
 11
4099.7761275297817
 21
2913.499955563932
  0
LINE
  8
_0-0_
  6
CONTINUOUS
 62
    7
 10
4099.7761275297817
 20
2913.499955563932
 11
4088.7759901417662
 21
2924.4999879667657
  0
LINE
  8
_0-0_
  6
CONTINUOUS
 62
    7
 10
3788.7761085593957
 20
2913.499955563932
 11
4077.7758527537508
 21
2913.499955563932
  0
LINE
  8
_0-0_
  6
CONTINUOUS
 62
    7
 10
4077.7758527537508
 20
2913.499955563932
 11
4088.7759901417662
 21
2924.4999879667657
  0
LINE
  8
_0-0_
  6
CONTINUOUS
 62
    7
 10
3808.7759956797049
 20
2913.499955563932
 11
3908.7760611923436
 21
3013.499916091389
  0
LINE
  8
_0-0_
  6
CONTINUOUS
 62
    7
 10
3818.7760442250419
 20
2913.499955563932
 11
3918.7758997673163
 21
3013.499916091389
  0
LINE
  8
_0-0_
  6
CONTINUOUS
 62
    7
 10
4368.7757746334637
 20
3013.499916091389
 11
4268.7759190911884
 21
2913.499955563932
  0
LINE
  8
_0-0_
  6
CONTINUOUS
 62
    7
 10
4358.7757260881262
 20
3013.499916091389
 11
4258.7758705458518
 21
2913.499955563932
  0
LINE
  8
_0-0_
  6
DASHED1
 62
    7
 10
4063.7760787487882
 20
2913.499955563932
 11
4063.7760787487882
 21
3006.5001340740901
  0
LINE
  8
_0-0_
  6
DASHED1
 62
    7
 10
4063.7760787487882
 20
3006.5001340740901
 11
4113.776111505108
 21
3006.5001340740901
  0
LINE
  8
_0-0_
  6
DASHED1
 62
    7
 10
4113.776111505108
 20
3006.5001340740901
 11
4113.776111505108
 21
2913.499955563932
  0
LINE
  8
_0-0_
  6
CONTINUOUS
 62
    7
 10
4066.7759253360987
 20
2913.499955563932
 11
4066.7759253360987
 21
2918.4998748514181
  0
LINE
  8
_0-0_
  6
CONTINUOUS
 62
    7
 10
4069.775981893772
 20
2913.499955563932
 11
4069.775981893772
 21
2918.4998748514181
  0
LINE
  8
_0-0_
  6
CONTINUOUS
 62
    7
 10
4072.7760384514459
 20
2913.499955563932
 11
4072.7760384514459
 21
2918.4998748514181
  0
LINE
  8
_0-0_
  6
CONTINUOUS
 62
    7
 10
4075.7758850387559
 20
2913.499955563932
 11
4075.7758850387559
 21
2918.4998748514181
  0
LINE
  8
_0-0_
  6
CONTINUOUS
 62
    7
 10
4078.7759415964297
 20
2913.499955563932
 11
4078.7759415964297
 21
2918.4998748514181
  0
LINE
  8
_0-0_
  6
CONTINUOUS
 62
    7
 10
4081.7757881837397
 20
2913.499955563932
 11
4081.7757881837397
 21
2918.4998748514181
  0
LINE
  8
_0-0_
  6
CONTINUOUS
 62
    7
 10
4084.7760547117778
 20
2913.499955563932
 11
4084.7760547117778
 21
2918.4998748514181
  0
LINE
  8
_0-0_
  6
CONTINUOUS
 62
    7
 10
4087.775691328723
 20
2913.499955563932
 11
4087.775691328723
 21
2918.4998748514181
  0
LINE
  8
_0-0_
  6
CONTINUOUS
 62
    7
 10
4090.7759578567611
 20
2913.499955563932
 11
4090.7759578567611
 21
2918.4998748514181
  0
LINE
  8
_0-0_
  6
CONTINUOUS
 62
    7
 10
4093.7758044440711
 20
2913.499955563932
 11
4093.7758044440711
 21
2918.4998748514181
  0
LINE
  8
_0-0_
  6
CONTINUOUS
 62
    7
 10
3788.7761085593957
 20
2913.499955563932
 11
4388.7758717241368
 21
2913.499955563932
  0
LINE
  8
_0-0_
  6
CONTINUOUS
 62
    7
 10
4388.7758717241368
 20
2901.499939303601
 11
3788.7761085593957
 21
2901.499939303601
  0
LINE
  8
_0-0_
  6
CONTINUOUS
 62
    7
 10
3788.7761085593957
 20
2725.4999457841677
 11
4388.7758717241368
 21
2725.4999457841677
  0
LINE
  8
_0-0_
  6
CONTINUOUS
 62
    7
 10
4388.7758717241368
 20
2713.4999295238363
 11
3788.7761085593957
 21
2713.4999295238363
  0
LINE
  8
_0-0_
  6
CONTINUOUS
 62
    4
 10
3788.7761085593957
 20
3163.500014360347
 11
4088.7759901417662
 21
3163.500014360347
  0
LINE
  8
_0-0_
  6
CONTINUOUS
 62
    4
 10
4088.7759901417662
 20
3163.500014360347
 11
4388.7758717241368
 21
3163.500014360347
  0
LINE
  8
_0-0_
  6
CONTINUOUS
 62
    4
 10
4088.7759901417662
 20
3163.500014360347
 11
4088.7759901417662
 21
3056.0800161324873
  0
LINE
  8
_0-0_
  6
CONTINUOUS
 62
    4
 10
3788.7761085593957
 20
3163.500014360347
 11
3807.1881997888086
 21
3171.2964239378234
  0
LINE
  8
_0-0_
  6
CONTINUOUS
 62
    4
 10
3807.1881997888086
 20
3171.2964239378234
 11
3812.775091228239
 21
3163.500014360347
  0
LINE
  8
_0-0_
  6
CONTINUOUS
 62
    4
 10
4388.7758717241368
 20
3163.500014360347
 11
4370.3642004354515
 21
3171.2964239378234
  0
LINE
  8
_0-0_
  6
CONTINUOUS
 62
    4
 10
4370.3642004354515
 20
3171.2964239378234
 11
4364.7770990256577
 21
3163.500014360347
  0
LINE
  8
_0-0_
  6
DASHED1
 62
    7
 10
4081.775998154103
 20
2998.5000532437475
 11
4095.7761920997928
 21
2998.5000532437475
  0
LINE
  8
_0-0_
  6
DASHED1
 62
    7
 10
4095.7761920997928
 20
2987.5001258260954
 11
4081.775998154103
 21
2987.5001258260954
  0
LINE
  8
_0-0_
  6
CONTINUOUS
 62
    7
 10
4079.776030439109
 20
3013.499916091389
 11
4074.7760061664403
 21
2972.4998430377268
  0
LINE
  8
_0-0_
  6
CONTINUOUS
 62
    7
 10
4102.7759741170921
 20
2972.4998430377268
 11
4088.7759901417662
 21
2972.4998430377268
  0
LINE
  8
_0-0_
  6
CONTINUOUS
 62
    7
 10
3788.7761085593957
 20
3013.499916091389
 11
4079.776030439109
 21
3013.499916091389
  0
LINE
  8
_0-0_
  6
CONTINUOUS
 62
    7
 10
4088.7759901417662
 20
2924.4999879667657
 11
4088.7759901417662
 21
2972.4999480229089
  0
LINE
  8
_0-0_
  6
CONTINUOUS
 62
    7
 10
4074.7760061664403
 20
2972.4998430377268
 11
4102.7759741170921
 21
2972.4998430377268
  0
LINE
  8
_0-0_
  6
CONTINUOUS
 62
    7
 10
4388.7758717241368
 20
3013.499916091389
 11
4097.7759498444238
 21
3013.499916091389
  0
LINE
  8
_0-0_
  6
CONTINUOUS
 62
    7
 10
4097.7759498444238
 20
3013.499916091389
 11
4102.7759741170921
 21
2972.4998430377268
  0
LINE
  8
_0-0_
  6
CONTINUOUS
 62
    7
 10
4088.7759901417662
 20
2924.4999879667657
 11
4088.7759901417662
 21
2972.4998430377268
  0
ARC
  8
_0-0_
  6
DASHED1
 62
    7
 10
4081.775998154103
 20
2993.0000895349217
 40
5.4999997974822881
 50
90
 51
270
  0
ARC
  8
_0-0_
  6
DASHED1
 62
    7
 10
4095.7761920997928
 20
2993.0000895349217
 40
5.4999997974822881
 50
270
 51
90
  0
CIRCLE
  8
_0-0_
  6
CONTINUOUS
 62
    7
 10
4088.7759901417662
 20
2993.0000895349217
 40
4.4999983057552324
  0
POINT
  8
_0-0_
 62
    4
 10
4088.7759901417662
 20
3163.500014360347
  0
LINE
  8
_0-0_
  6
CONTINUOUS
 62
    7
 10
3905.6774326494701
 20
1798.500014360347
 11
4205.6776291873857
 21
1798.500014360347
  0
LINE
  8
_0-0_
  6
CONTINUOUS
 62
    7
 10
3955.6776753761542
 20
1798.500014360347
 11
3955.6776753761542
 21
1698.4997388773443
  0
LINE
  8
_0-0_
  6
CONTINUOUS
 62
    7
 10
3955.6776753761542
 20
1698.4997388773443
 11
4205.6776291873857
 21
1698.4997388773443
  0
LINE
  8
_0-0_
  6
DASHED1
 62
    7
 10
3955.6776753761542
 20
1758.4999251641821
 11
4205.6776291873857
 21
1758.4999251641821
  0
LINE
  8
_0-0_
  6
DASHED1
 62
    7
 10
3915.6776911651705
 20
1782.4998526996628
 11
4185.6777420670769
 21
1782.4998526996628
  0
LINE
  8
_0-0_
  6
DASHED1
 62
    7
 10
4185.6777420670769
 20
1773.4998929970052
 11
3915.6776911651705
 21
1773.4998929970052
  0
LINE
  8
_0-0_
  6
DASHED1
 62
    7
 10
3915.6776911651705
 20
1773.4998929970052
 11
3915.6776911651705
 21
1782.4998526996628
  0
LINE
  8
_0-0_
  6
CONTINUOUS
 62
    7
 10
3991.6777241571472
 20
1648.5000210765704
 11
4005.6777081324731
 21
1648.5000210765704
  0
LINE
  8
_0-0_
  6
CONTINUOUS
 62
    7
 10
4005.6777081324731
 20
1648.5000210765704
 11
4005.6777081324731
 21
1651.4996576935168
  0
LINE
  8
_0-0_
  6
CONTINUOUS
 62
    7
 10
4005.6777081324731
 20
1651.4996576935168
 11
3991.6777241571472
 21
1651.4996576935168
  0
LINE
  8
_0-0_
  6
CONTINUOUS
 62
    7
 10
4079.677563439091
 20
1648.5000210765704
 11
4065.6775794637656
 21
1648.5000210765704
  0
LINE
  8
_0-0_
  6
CONTINUOUS
 62
    7
 10
4065.6775794637656
 20
1648.5000210765704
 11
4065.6775794637656
 21
1651.4996576935168
  0
LINE
  8
_0-0_
  6
CONTINUOUS
 62
    7
 10
4065.6775794637656
 20
1651.4996576935168
 11
4079.677563439091
 21
1651.4996576935168
  0
LINE
  8
_0-0_
  6
CONTINUOUS
 62
    7
 10
3985.6776110417991
 20
1654.4999242215545
 11
3985.6776110417991
 21
1692.4999407175426
  0
LINE
  8
_0-0_
  6
CONTINUOUS
 62
    7
 10
3988.6776675994734
 20
1692.4999407175426
 11
3988.6776675994734
 21
1654.4999242215545
  0
LINE
  8
_0-0_
  6
CONTINUOUS
 62
    7
 10
4085.6776765544382
 20
1654.4999242215545
 11
4085.6776765544382
 21
1692.4999407175426
  0
LINE
  8
_0-0_
  6
CONTINUOUS
 62
    7
 10
4082.1776805606069
 20
1692.4999407175426
 11
4082.1776805606069
 21
1654.4999242215545
  0
LINE
  8
_0-0_
  6
CONTINUOUS
 62
    7
 10
3905.6774326494701
 20
1648.5000210765704
 11
4255.677661943706
 21
1648.5000210765704
  0
LINE
  8
_0-0_
  6
CONTINUOUS
 62
    4
 10
4205.6776291873857
 20
1933.4999348261181
 11
3955.6776753761542
 21
1933.4999348261181
  0
LINE
  8
_0-0_
  6
CONTINUOUS
 62
    4
 10
3955.6776753761542
 20
1933.4999348261181
 11
3955.6776753761542
 21
1854.1813202346154
  0
LINE
  8
_0-0_
  6
CONTINUOUS
 62
    4
 10
4205.6776291873857
 20
1933.4999348261181
 11
4187.2657479283371
 21
1941.2964493887764
  0
LINE
  8
_0-0_
  6
CONTINUOUS
 62
    4
 10
4187.2657479283371
 20
1941.2964493887764
 11
4181.6788564889066
 21
1933.4999348261181
  0
LINE
  8
_0-0_
  6
CONTINUOUS
 62
    4
 10
4014.6776678351298
 20
1609.7633235592639
 11
3915.6776911651705
 21
1609.7633235592639
  0
LINE
  8
_0-0_
  6
CONTINUOUS
 62
    4
 10
3915.6776911651705
 20
1609.7633235592639
 11
3915.6776911651705
 21
1758.4999251641821
  0
LINE
  8
_0-0_
  6
CONTINUOUS
 62
    4
 10
4014.6776678351298
 20
1609.7633235592639
 11
4014.6776678351298
 21
1681.8972772281604
  0
ARC
  8
_0-0_
  6
CONTINUOUS
 62
    7
 10
4079.677563439091
 20
1654.4999242215545
 40
6.0000007483950002
 50
270
 51
0
  0
ARC
  8
_0-0_
  6
CONTINUOUS
 62
    7
 10
4079.677563439091
 20
1654.4999242215545
 40
2.4999994232847884
 50
270
 51
0
  0
ARC
  8
_0-0_
  6
CONTINUOUS
 62
    7
 10
3991.6777241571472
 20
1654.4999242215545
 40
6.0000007483950002
 50
180
 51
270
  0
ARC
  8
_0-0_
  6
CONTINUOUS
 62
    7
 10
3991.6777241571472
 20
1654.4999242215545
 40
2.4999994232847884
 50
180
 51
270
  0
ARC
  8
_0-0_
  6
CONTINUOUS
 62
    7
 10
3985.6776110417991
 20
1648.5000210765704
 40
4.9999980263728432
 50
90
 51
180
  0
ARC
  8
_0-0_
  6
CONTINUOUS
 62
    7
 10
3985.6776110417991
 20
1648.5000210765704
 40
3.0000003741975001
 50
90
 51
180
  0
ARC
  8
_0-0_
  6
CONTINUOUS
 62
    7
 10
4085.6776765544382
 20
1648.5000210765704
 40
4.9999980263728432
 50
0
 51
90
  0
ARC
  8
_0-0_
  6
CONTINUOUS
 62
    7
 10
4085.6776765544382
 20
1648.5000210765704
 40
3.0000003741975001
 50
0
 51
90
  0
POINT
  8
_0-0_
 62
    4
 10
3955.6776753761542
 20
1933.4999348261181
  0
POINT
  8
_0-0_
 62
    4
 10
4014.6776678351298
 20
1609.7633235592639
  0
POINT
  8
_0-0_
 62
    4
 10
3915.6776911651705
 20
1609.7633235592639
  0
TEXT
  8
_0-0_
 62
    7
 10
3806.7338669889323
 20
4368.6114469219792
 40
20
 41
1
 50
0
  1
パネル幅
  0
TEXT
  8
_0-0_
 62
    7
 10
4120.5030801020166
 20
4368.6114469219792
 40
20
 41
1
 50
0
  1
パネル幅
  0
TEXT
  8
_0-0_
 62
    7
 10
4386.0074775220437
 20
4081.9632131379331
 40
20
 41
1
 50
90.00000250447664
  1
50
  0
TEXT
  8
_0-0_
 62
    7
 10
4386.0074777039918
 20
4153.05073199049
 40
20
 41
1
 50
90.000002504475901
  1
100
  0
TEXT
  8
_0-0_
 62
    7
 10
3858.4026963987744
 20
3167.4108398640501
 40
20
 41
1
 50
-0.0001865175983117
  1
パネル幅
  0
TEXT
  8
_0-0_
 62
    7
 10
4172.1719620044414
 20
3167.4108398642579
 40
20
 41
1
 50
-0.0001865178979919
  1
パネル幅
  0
TEXT
  8
_0-0_
 62
    7
 10
3967.6118207519985
 20
1937.7919370290397
 40
20
 41
1
 50
0
  1
パネル長さ
  0
TEXT
  8
_0-0_
 62
    7
 10
3937.3661020736381
 20
1586.3077946813873
 40
20
 41
1
 50
0
  1
50以上
  0
TEXT
  8
_0-0_
 62
    7
 10
4139.8698991016645
 20
4244.0873046018696
 40
20
 41
1
 50
0
  1
スラブプレート ｱ6 @600
  0
TEXT
  8
_0-0_
 62
    7
 10
4199.066045541339
 20
4010.9500040860148
 40
20
 41
1
 50
0
  1
チャンネル
  0
TEXT
  8
_0-0_
 62
    7
 10
4198.8625007528626
 20
3985.9239661775337
 40
20
 41
1
 50
0
  1
[-100x50x20x3.2
  0
TEXT
  8
_0-0_
 62
    7
 10
4198.0737312654956
 20
3941.1405299202511
 40
20
 41
1
 50
0
  1
大梁
  0
TEXT
  8
_0-0_
 62
    7
 10
3780.1009186753954
 20
4247.3802043266696
 40
20
 41
1
 50
0
  1
シポレックス
  0
LINE
  8
_0-0_
  6
CONTINUOUS
 62
    4
 10
3935.1237094663848
 20
4257.2886265604629
 11
3981.7451090991372
 21
4176.5380140879879
  0
LINE
  8
_0-0_
  6
CONTINUOUS
 62
    4
 10
3935.1237094663848
 20
4257.2886265604629
 11
3916.5523983451558
 21
4257.2886265604629
  0
LINE
  8
_0-0_
  6
CONTINUOUS
 62
    4
 10
4037.3719276640049
 20
4195.2581318410648
 11
4097.5563629450589
 21
4299.5002286131294
  0
LINE
  8
_0-0_
  6
CONTINUOUS
 62
    4
 10
4097.5563629450589
 20
4299.5002286131294
 11
4138.2565983192444
 21
4299.5002286131294
  0
LINE
  8
_0-0_
  6
CONTINUOUS
 62
    4
 10
4053.731558587479
 20
4157.0854147208684
 11
4112.2996420081627
 21
4258.5289214993054
  0
LINE
  8
_0-0_
  6
CONTINUOUS
 62
    4
 10
4112.2996420081627
 20
4258.5289214993054
 11
4136.2114869760371
 21
4258.5289214993054
  0
LINE
  8
_0-0_
  6
CONTINUOUS
 62
    4
 10
4171.4999461941843
 20
4021.61169612923
 11
4134.1321504635343
 21
4086.3349557789115
  0
LINE
  8
_0-0_
  6
CONTINUOUS
 62
    4
 10
4174.9560583819857
 20
3952.4898723139245
 11
4135.057909797436
 21
4021.5950034853095
  0
LINE
  8
_0-0_
  6
CONTINUOUS
 62
    4
 10
4171.4999461941843
 20
4021.61169612923
 11
4194.4731351182927
 21
4021.61169612923
  0
TEXT
  8
_0-0_
 62
    7
 10
4194.8552538750337
 20
3044.3594157807929
 40
20
 41
1
 50
0
  1
スラブプレート ｱ6 @600
  0
TEXT
  8
_0-0_
 62
    7
 10
3834.8549147522917
 20
3048.2747078396587
 40
20
 41
1
 50
0
  1
シポレックス
  0
TEXT
  8
_0-0_
 62
    7
 10
4158.2063214606833
 20
2831.3675277785023
 40
20
 41
1
 50
0
  1
小梁
  0
LINE
  8
_0-0_
  6
CONTINUOUS
 62
    4
 10
3986.7926495580532
 20
3056.087785035947
 11
4033.4139442056239
 21
2975.3372775486537
  0
LINE
  8
_0-0_
  6
CONTINUOUS
 62
    4
 10
4089.0405528001274
 20
2994.0575002869127
 11
4149.2249880811814
 21
3098.2995970589773
  0
LINE
  8
_0-0_
  6
CONTINUOUS
 62
    4
 10
4149.2249880811814
 20
3098.2995970589773
 11
4189.9252234553669
 21
3098.2995970589773
  0
LINE
  8
_0-0_
  6
CONTINUOUS
 62
    4
 10
4105.4003936939653
 20
2955.8847831667158
 11
4163.9684771146485
 21
3057.3278700044257
  0
LINE
  8
_0-0_
  6
CONTINUOUS
 62
    4
 10
4163.9684771146485
 20
3057.3278700044257
 11
4187.8803220825239
 21
3057.3278700044257
  0
LINE
  8
_0-0_
  6
CONTINUOUS
 62
    4
 10
4150.0864964837674
 20
2838.7162808893272
 11
4135.544369029164
 21
2838.7162808893272
  0
LINE
  8
_0-0_
  6
CONTINUOUS
 62
    4
 10
4135.544369029164
 20
2838.7162808893272
 11
4116.0043170055305
 21
2872.5604589602199
  0
LINE
  8
_0-0_
  6
CONTINUOUS
 62
    4
 10
3986.7926495580532
 20
3056.087785035947
 11
3967.2483469926551
 21
3056.087785035947
  0
TEXT
  8
_0-0_
 62
    7
 10
4094.6327536610988
 20
1872.0517896946033
 40
20
 41
1
 50
-0.0002005068959218
  1
L=500　@600
  0
TEXT
  8
_0-0_
 62
    7
 10
4094.7084330333573
 20
1828.3703363913714
 40
20
 41
1
 50
0
  1
モルタル充てん
  0
TEXT
  8
_0-0_
 62
    7
 10
4182.359791779375
 20
1611.4459260211081
 40
20
 41
1
 50
0
  1
シポレックス
  0
TEXT
  8
_0-0_
 62
    7
 10
4157.4769854186352
 20
1578.1298902987126
 40
20
 41
1
 50
0
  1
チャンネル
  0
TEXT
  8
_0-0_
 62
    7
 10
4163.6476314661231
 20
1555.9194857523378
 40
20
 41
1
 50
-0.0000978082474284
  1
[-100x50x20x3.2
  0
LINE
  8
_0-0_
  6
CONTINUOUS
 62
    4
 10
4132.1947209163918
 20
1587.4097211535832
 11
4155.6831766612631
 21
1587.4097211535832
  0
LINE
  8
_0-0_
  6
CONTINUOUS
 62
    4
 10
4083.979226281831
 20
1670.9214964023429
 11
4132.1947209163918
 21
1587.4097211535832
  0
LINE
  8
_0-0_
  6
CONTINUOUS
 62
    4
 10
4160.7569895012439
 20
1620.9698618148745
 11
4182.3360052391799
 21
1620.9698618148745
  0
LINE
  8
_0-0_
  6
CONTINUOUS
 62
    4
 10
4160.7569895012439
 20
1620.9698618148745
 11
4100.5414786063511
 21
1725.2660259556126
  0
LINE
  8
_0-0_
  6
CONTINUOUS
 62
    4
 10
4056.1106997789047
 20
1863.9303492100544
 11
4084.9043557046411
 21
1863.9303492100544
  0
LINE
  8
_0-0_
  6
CONTINUOUS
 62
    4
 10
4010.9015608129303
 20
1785.6257864904219
 11
4056.1106997789047
 21
1863.9303492100544
  0
LINE
  8
_0-0_
  6
CONTINUOUS
 62
    4
 10
4059.0034614806873
 20
1841.1279876443871
 11
4086.7544045798968
 21
1841.1279876443871
  0
LINE
  8
_0-0_
  6
CONTINUOUS
 62
    4
 10
4059.0034614806873
 20
1841.1279876443871
 11
4023.1020987706693
 21
1778.9446345001577
  0
LINE
  8
_0-0_
  6
CONTINUOUS
 62
    4
 10
4055.9160572516817
 20
1905.184171448343
 11
4084.9043557046411
 21
1905.184171448343
  0
LINE
  8
_0-0_
  6
CONTINUOUS
 62
    4
 10
3983.1506177137203
 20
1779.1505104418425
 11
4055.9160572516817
 21
1905.184171448343
  0
TEXT
  8
_0-0_
 62
    7
 10
4143.7672378357447
 20
4286.2364210793121
 40
20
 41
1
 50
0
  1
目地鉄筋φ9 L=1000 @600
  0
TEXT
  8
_0-0_
 62
    7
 10
4194.5680716398574
 20
3084.2953947812221
 40
20
 41
1
 50
0
  1
目地鉄筋φ9　L=1000 @600
  0
TEXT
  8
_0-0_
 62
    7
 10
4089.9183885990051
 20
1853.5424522705146
 40
20
 41
1
 50
0
  1
マルカン　@600
  0
TEXT
  8
_0-0_
 62
    7
 10
4089.8152481063617
 20
1894.2617661422751
 40
20
 41
1
 50
0.0001233889478031
  1
目地鉄筋φ9
  0
LINE
  8
_0-0_
  6
CONTINUOUS
 62
    7
 10
5023.7460701766831
 20
1698.50005383289
 11
5273.7458140175522
 21
1698.50005383289
  0
LINE
  8
_0-0_
  6
CONTINUOUS
 62
    7
 10
5253.7457169268791
 20
1798.500014360347
 11
5153.7458613846038
 21
1698.50005383289
  0
LINE
  8
_0-0_
  6
CONTINUOUS
 62
    7
 10
5263.7457654722148
 20
1798.500014360347
 11
5163.7459099299394
 21
1698.50005383289
  0
LINE
  8
_0-0_
  6
CONTINUOUS
 62
    7
 10
5059.7459089873119
 20
1698.50005383289
 11
5097.7457155129368
 21
1698.50005383289
  0
LINE
  8
_0-0_
  6
CONTINUOUS
 62
    7
 10
5059.7459089873119
 20
1695.0000578390586
 11
5097.7457155129368
 21
1695.0000578390586
  0
LINE
  8
_0-0_
  6
CONTINUOUS
 62
    7
 10
4973.7458274499995
 20
1798.500014360347
 11
5273.7458140175522
 21
1798.500014360347
  0
LINE
  8
_0-0_
  6
DASHED1
 62
    7
 10
5023.7460701766831
 20
1758.4999251641821
 11
5273.7458140175522
 21
1758.4999251641821
  0
LINE
  8
_0-0_
  6
DASHED1
 62
    7
 10
4983.7458759953361
 20
1782.5000626700264
 11
5253.7461368676068
 21
1782.5000626700264
  0
LINE
  8
_0-0_
  6
DASHED1
 62
    7
 10
5253.7461368676068
 20
1782.5000626700264
 11
5253.7461368676068
 21
1773.5002079525511
  0
LINE
  8
_0-0_
  6
DASHED1
 62
    7
 10
5253.7461368676068
 20
1773.5002079525511
 11
4983.7458759953361
 21
1773.5002079525511
  0
LINE
  8
_0-0_
  6
DASHED1
 62
    7
 10
4983.7458759953361
 20
1773.5002079525511
 11
4983.7458759953361
 21
1782.5000626700264
  0
LINE
  8
_0-0_
  6
CONTINUOUS
 62
    7
 10
5023.7460701766831
 20
1798.500014360347
 11
5023.7460701766831
 21
1698.50005383289
  0
LINE
  8
_0-0_
  6
DASHED1
 62
    7
 10
5073.7458929626382
 20
1707.5000135355476
 11
5073.7458929626382
 21
1788.4999658150105
  0
LINE
  8
_0-0_
  6
DASHED1
 62
    7
 10
5082.7458526652954
 20
1788.4999658150105
 11
5082.7458526652954
 21
1713.4999166805312
  0
LINE
  8
_0-0_
  6
DASHED1
 62
    7
 10
5103.7458286282845
 20
1707.5000135355476
 11
5088.745965780643
 21
1707.5000135355476
  0
LINE
  8
_0-0_
  6
DASHED1
 62
    7
 10
5103.7458286282845
 20
1698.50005383289
 11
5103.7458286282845
 21
1707.5000135355476
  0
LINE
  8
_0-0_
  6
DASHED1
 62
    7
 10
5082.7458526652954
 20
1698.50005383289
 11
5082.7458526652954
 21
1701.4995854646543
  0
LINE
  8
_0-0_
  6
DASHED1
 62
    7
 10
5085.7459092229692
 20
1698.50005383289
 11
5085.7459092229692
 21
1701.4995854646543
  0
LINE
  8
_0-0_
  6
DASHED1
 62
    7
 10
5088.745965780643
 20
1698.50005383289
 11
5088.745965780643
 21
1701.4995854646543
  0
LINE
  8
_0-0_
  6
DASHED1
 62
    7
 10
5091.7460223383168
 20
1698.50005383289
 11
5091.7460223383168
 21
1701.4995854646543
  0
LINE
  8
_0-0_
  6
DASHED1
 62
    7
 10
5094.7460788959906
 20
1698.50005383289
 11
5094.7460788959906
 21
1701.4995854646543
  0
LINE
  8
_0-0_
  6
DASHED1
 62
    7
 10
5097.7457155129368
 20
1698.50005383289
 11
5097.7457155129368
 21
1701.4995854646543
  0
LINE
  8
_0-0_
  6
DASHED1
 62
    7
 10
5100.7457720706116
 20
1698.50005383289
 11
5100.7457720706116
 21
1701.4995854646543
  0
ARC
  8
_0-0_
  6
CONTINUOUS
 62
    7
 10
5097.7457155129368
 20
1692.4999407175426
 40
6.0000007483950002
 50
0
 51
90
  0
ARC
  8
_0-0_
  6
CONTINUOUS
 62
    7
 10
5097.7457155129368
 20
1692.4999407175426
 40
2.4999994232847884
 50
0
 51
90
  0
ARC
  8
_0-0_
  6
CONTINUOUS
 62
    7
 10
5059.7459089873119
 20
1692.4999407175426
 40
6.0000007483950002
 50
90
 51
180
  0
ARC
  8
_0-0_
  6
CONTINUOUS
 62
    7
 10
5059.7459089873119
 20
1692.4999407175426
 40
2.4999994232847884
 50
90
 51
180
  0
ARC
  8
_0-0_
  6
DASHED1
 62
    7
 10
5078.2459777991489
 20
1788.4999658150105
 40
4.4999978956568656
 50
0
 51
180
  0
ARC
  8
_0-0_
  6
DASHED1
 62
    7
 10
5078.2459777991489
 20
1768.4998687243369
 40
4.4999978956568656
 50
180
 51
0
  0
ARC
  8
_0-0_
  6
DASHED1
 62
    7
 10
5082.7458526652954
 20
1707.5000135355476
 40
8.9999998922973994
 50
180
 51
270
  0
ARC
  8
_0-0_
  6
DASHED1
 62
    7
 10
5088.745965780643
 20
1713.4999166805312
 40
6.0000007483950002
 50
180
 51
270
  0
ARC
  8
_0-0_
  6
CONTINUOUS
 62
    7
 10
5073.7458929626382
 20
1698.50005383289
 40
4.9999980263728432
 50
90
 51
180
  0
ARC
  8
_0-0_
  6
CONTINUOUS
 62
    7
 10
5073.7458929626382
 20
1698.50005383289
 40
3.0000003741975001
 50
90
 51
180
  0
LINE
  8
_0-0_
  6
CONTINUOUS
 62
    7
 10
4772.6459441476691
 20
4115.1189530679139
 11
5062.6458821698852
 21
4115.1189530679139
  0
LINE
  8
_0-0_
  6
CONTINUOUS
 62
    7
 10
5062.6458821698852
 20
4115.1189530679139
 11
5062.6458821698852
 21
4215.1188086101884
  0
LINE
  8
_0-0_
  6
CONTINUOUS
 62
    7
 10
5062.6458821698852
 20
4215.1188086101884
 11
4772.6459441476691
 21
4215.1188086101884
  0
LINE
  8
_0-0_
  6
CONTINUOUS
 62
    7
 10
5062.6458821698852
 20
4215.1188086101884
 11
5082.645769290194
 21
4215.1188086101884
  0
LINE
  8
_0-0_
  6
CONTINUOUS
 62
    7
 10
5372.6457073124093
 20
4115.1189530679139
 11
5082.645769290194
 21
4115.1189530679139
  0
LINE
  8
_0-0_
  6
CONTINUOUS
 62
    7
 10
5082.645769290194
 20
4115.1189530679139
 11
5082.645769290194
 21
4215.1188086101884
  0
LINE
  8
_0-0_
  6
CONTINUOUS
 62
    7
 10
5082.645769290194
 20
4215.1188086101884
 11
5372.6457073124093
 21
4215.1188086101884
  0
LINE
  8
_0-0_
  6
CONTINUOUS
 62
    7
 10
4852.6459125696338
 20
4115.1189530679139
 11
4952.6457681119082
 21
4215.1188086101884
  0
LINE
  8
_0-0_
  6
CONTINUOUS
 62
    7
 10
4862.645751144606
 20
4115.1189530679139
 11
4962.6458166572456
 21
4215.1188086101884
  0
LINE
  8
_0-0_
  6
CONTINUOUS
 62
    7
 10
5192.6458833481684
 20
4115.1189530679139
 11
5292.6457388904437
 21
4215.1188086101884
  0
LINE
  8
_0-0_
  6
CONTINUOUS
 62
    7
 10
5202.6457219231434
 20
4115.1189530679139
 11
5302.6457874357811
 21
4215.1188086101884
  0
LINE
  8
_0-0_
  6
CONTINUOUS
 62
    7
 10
5028.6458011038849
 20
4065.118920311595
 11
5042.6457850792112
 21
4065.118920311595
  0
LINE
  8
_0-0_
  6
CONTINUOUS
 62
    7
 10
5042.6457850792112
 20
4065.118920311595
 11
5042.6457850792112
 21
4068.1188718840867
  0
LINE
  8
_0-0_
  6
CONTINUOUS
 62
    7
 10
5042.6457850792112
 20
4068.1188718840867
 11
5028.6458011038849
 21
4068.1188718840867
  0
LINE
  8
_0-0_
  6
CONTINUOUS
 62
    7
 10
5116.6458503561926
 20
4065.118920311595
 11
5102.6458663808662
 21
4065.118920311595
  0
LINE
  8
_0-0_
  6
CONTINUOUS
 62
    7
 10
5102.6458663808662
 20
4065.118920311595
 11
5102.6458663808662
 21
4068.1188718840867
  0
LINE
  8
_0-0_
  6
CONTINUOUS
 62
    7
 10
5102.6458663808662
 20
4068.1188718840867
 11
5116.6458503561926
 21
4068.1188718840867
  0
LINE
  8
_0-0_
  6
CONTINUOUS
 62
    7
 10
5022.6456879885382
 20
4109.1188399525663
 11
5022.6456879885382
 21
4071.118823456578
  0
LINE
  8
_0-0_
  6
CONTINUOUS
 62
    7
 10
5025.6459545165753
 20
4071.118823456578
 11
5025.6459545165753
 21
4109.1188399525663
  0
LINE
  8
_0-0_
  6
CONTINUOUS
 62
    7
 10
5122.6459634715411
 20
4109.1188399525663
 11
5122.6459634715411
 21
4071.118823456578
  0
LINE
  8
_0-0_
  6
CONTINUOUS
 62
    7
 10
5119.1457575073455
 20
4071.118823456578
 11
5119.1457575073455
 21
4109.1188399525663
  0
LINE
  8
_0-0_
  6
CONTINUOUS
 62
    7
 10
5028.6458011038849
 20
4115.1189530679139
 11
5116.6458503561926
 21
4115.1189530679139
  0
LINE
  8
_0-0_
  6
CONTINUOUS
 62
    7
 10
5116.6458503561926
 20
4111.6188520889009
 11
5028.6458011038849
 21
4111.6188520889009
  0
LINE
  8
_0-0_
  6
CONTINUOUS
 62
    7
 10
5062.6458821698852
 20
4053.1189040512636
 11
4972.6458652025831
 21
4053.1189040512636
  0
LINE
  8
_0-0_
  6
CONTINUOUS
 62
    7
 10
4972.6458652025831
 20
4053.1189040512636
 11
4972.6458652025831
 21
4065.118920311595
  0
LINE
  8
_0-0_
  6
CONTINUOUS
 62
    7
 10
4972.6458652025831
 20
4065.118920311595
 11
5172.6459962278586
 21
4065.118920311595
  0
LINE
  8
_0-0_
  6
CONTINUOUS
 62
    7
 10
5172.6459962278586
 20
4065.118920311595
 11
5172.6459962278586
 21
4053.1189040512636
  0
LINE
  8
_0-0_
  6
CONTINUOUS
 62
    7
 10
5172.6459962278586
 20
4053.1189040512636
 11
5082.645769290194
 21
4053.1189040512636
  0
LINE
  8
_0-0_
  6
CONTINUOUS
 62
    7
 10
5062.6458821698852
 20
3777.1188450191912
 11
4972.6458652025831
 21
3777.1188450191912
  0
LINE
  8
_0-0_
  6
CONTINUOUS
 62
    7
 10
4972.6458652025831
 20
3777.1188450191912
 11
4972.6458652025831
 21
3765.1189337440424
  0
LINE
  8
_0-0_
  6
CONTINUOUS
 62
    7
 10
4972.6458652025831
 20
3765.1189337440424
 11
5172.6459962278586
 21
3765.1189337440424
  0
LINE
  8
_0-0_
  6
CONTINUOUS
 62
    7
 10
5172.6459962278586
 20
3765.1189337440424
 11
5172.6459962278586
 21
3777.1188450191912
  0
LINE
  8
_0-0_
  6
CONTINUOUS
 62
    7
 10
5172.6459962278586
 20
3777.1188450191912
 11
5082.645769290194
 21
3777.1188450191912
  0
LINE
  8
_0-0_
  6
CONTINUOUS
 62
    7
 10
5068.6457853148677
 20
4047.118790935916
 11
5068.6457853148677
 21
3779.1189177193678
  0
LINE
  8
_0-0_
  6
CONTINUOUS
 62
    7
 10
5076.6458661452098
 20
3779.1189177193678
 11
5076.6458661452098
 21
4047.118790935916
  0
LINE
  8
_0-0_
  6
DASHED1
 62
    7
 10
4772.6459441476691
 20
4175.1190343695698
 11
5062.6458821698852
 21
4175.1190343695698
  0
LINE
  8
_0-0_
  6
DASHED1
 62
    7
 10
5372.6457073124093
 20
4175.1190343695698
 11
5082.645769290194
 21
4175.1190343695698
  0
LINE
  8
_0-0_
  6
DASHED1
 62
    7
 10
4822.6459769039875
 20
4199.1188569198684
 11
5322.6460944968176
 21
4199.1188569198684
  0
LINE
  8
_0-0_
  6
DASHED1
 62
    7
 10
5322.6460944968176
 20
4199.1188569198684
 11
5322.6460944968176
 21
4190.1188972172113
  0
LINE
  8
_0-0_
  6
DASHED1
 62
    7
 10
5322.6460944968176
 20
4190.1188972172113
 11
4822.6459769039875
 21
4190.1188972172113
  0
LINE
  8
_0-0_
  6
DASHED1
 62
    7
 10
4822.6459769039875
 20
4190.1188972172113
 11
4822.6459769039875
 21
4199.1188569198684
  0
LINE
  8
_0-0_
  6
DASHED1
 62
    7
 10
5069.645874157547
 20
4208.1190265928899
 11
5075.6457773025313
 21
4208.1190265928899
  0
LINE
  8
_0-0_
  6
CONTINUOUS
 62
    4
 10
5062.6458821698852
 20
4245.1187442758346
 11
5062.6458821698852
 21
4335.1187612431377
  0
LINE
  8
_0-0_
  6
CONTINUOUS
 62
    4
 10
5072.6455107744932
 20
4245.1187442758346
 11
5072.6455107744932
 21
4335.1187612431377
  0
LINE
  8
_0-0_
  6
CONTINUOUS
 62
    4
 10
5082.645769290194
 20
4245.1187442758346
 11
5082.645769290194
 21
4335.1187612431377
  0
LINE
  8
_0-0_
  6
CONTINUOUS
 62
    4
 10
4772.6459441476691
 20
4365.1186969087839
 11
5062.6458821698852
 21
4365.1186969087839
  0
LINE
  8
_0-0_
  6
CONTINUOUS
 62
    4
 10
5062.6458821698852
 20
4335.1187612431377
 11
5062.6458821698852
 21
4365.1186969087839
  0
LINE
  8
_0-0_
  6
CONTINUOUS
 62
    4
 10
5062.6458821698852
 20
4365.1186969087839
 11
5082.645769290194
 21
4365.1186969087839
  0
LINE
  8
_0-0_
  6
CONTINUOUS
 62
    4
 10
5082.645769290194
 20
4335.1187612431377
 11
5082.645769290194
 21
4365.1186969087839
  0
LINE
  8
_0-0_
  6
CONTINUOUS
 62
    4
 10
5082.645769290194
 20
4365.1186969087839
 11
5372.6457073124093
 21
4365.1186969087839
  0
LINE
  8
_0-0_
  6
CONTINUOUS
 62
    4
 10
4772.6459441476691
 20
4365.1186969087839
 11
4791.0580353770811
 21
4372.9153164566233
  0
LINE
  8
_0-0_
  6
CONTINUOUS
 62
    4
 10
4791.0580353770811
 20
4372.9153164566233
 11
4796.6449268165125
 21
4365.1186969087839
  0
LINE
  8
_0-0_
  6
CONTINUOUS
 62
    4
 10
5372.6457073124093
 20
4365.1186969087839
 11
5354.2338260533597
 21
4372.9153164566233
  0
LINE
  8
_0-0_
  6
CONTINUOUS
 62
    4
 10
5354.2338260533597
 20
4372.9153164566233
 11
5348.6471445842935
 21
4365.1186969087839
  0
LINE
  8
_0-0_
  6
DASHED1
 62
    7
 10
5069.645874157547
 20
4115.1189530679139
 11
5069.645874157547
 21
4208.1190265928899
  0
LINE
  8
_0-0_
  6
DASHED1
 62
    7
 10
5075.6457773025313
 20
4208.1190265928899
 11
5075.6457773025313
 21
4115.1189530679139
  0
LINE
  8
_0-0_
  6
CONTINUOUS
 62
    7
 10
4772.6459441476691
 20
4065.118920311595
 11
5372.6457073124093
 21
4065.118920311595
  0
ARC
  8
_0-0_
  6
CONTINUOUS
 62
    7
 10
5069.645874157547
 20
4115.1189530679139
 40
4.99999843647121
 50
90
 51
180
  0
ARC
  8
_0-0_
  6
CONTINUOUS
 62
    7
 10
5069.645874157547
 20
4115.1189530679139
 40
2.9999999640991333
 50
90
 51
180
  0
ARC
  8
_0-0_
  6
CONTINUOUS
 62
    7
 10
5075.6457773025313
 20
4115.1189530679139
 40
4.99999843647121
 50
0
 51
90
  0
ARC
  8
_0-0_
  6
CONTINUOUS
 62
    7
 10
5075.6457773025313
 20
4115.1189530679139
 40
2.9999999640991333
 50
0
 51
90
  0
ARC
  8
_0-0_
  6
CONTINUOUS
 62
    7
 10
5028.6458011038849
 20
4071.118823456578
 40
5.9999999281982666
 50
180
 51
270
  0
ARC
  8
_0-0_
  6
CONTINUOUS
 62
    7
 10
5028.6458011038849
 20
4071.118823456578
 40
2.499999218235605
 50
180
 51
270
  0
ARC
  8
_0-0_
  6
CONTINUOUS
 62
    7
 10
5028.6458011038849
 20
4109.1188399525663
 40
5.9999999281982666
 50
90
 51
180
  0
ARC
  8
_0-0_
  6
CONTINUOUS
 62
    7
 10
5028.6458011038849
 20
4109.1188399525663
 40
2.499999218235605
 50
90
 51
180
  0
ARC
  8
_0-0_
  6
CONTINUOUS
 62
    7
 10
5116.6458503561926
 20
4109.1188399525663
 40
5.9999999281982666
 50
0
 51
90
  0
ARC
  8
_0-0_
  6
CONTINUOUS
 62
    7
 10
5116.6458503561926
 20
4109.1188399525663
 40
2.499999218235605
 50
0
 51
90
  0
ARC
  8
_0-0_
  6
CONTINUOUS
 62
    7
 10
5116.6458503561926
 20
4071.118823456578
 40
5.9999999281982666
 50
270
 51
0
  0
ARC
  8
_0-0_
  6
CONTINUOUS
 62
    7
 10
5116.6458503561926
 20
4071.118823456578
 40
2.499999218235605
 50
270
 51
0
  0
ARC
  8
_0-0_
  6
CONTINUOUS
 62
    7
 10
5062.6458821698852
 20
4047.118790935916
 40
5.9999999281982666
 50
0
 51
90
  0
ARC
  8
_0-0_
  6
CONTINUOUS
 62
    7
 10
5082.645769290194
 20
4047.118790935916
 40
5.9999999281982666
 50
90
 51
180
  0
ARC
  8
_0-0_
  6
CONTINUOUS
 62
    7
 10
5062.6458821698852
 20
3783.1188531493572
 40
5.9999999281982666
 50
270
 51
0
  0
ARC
  8
_0-0_
  6
CONTINUOUS
 62
    7
 10
5082.645769290194
 20
3783.1188531493572
 40
5.9999999281982666
 50
180
 51
270
  0
TEXT
  8
_0-0_
 62
    7
 10
4815.7607935298702
 20
4368.5005825699045
 40
20
 41
1
 50
0
  1
パネル長さ
  0
TEXT
  8
_0-0_
 62
    7
 10
5161.6478083828588
 20
4368.5005825699045
 40
20
 41
1
 50
0
  1
パネル長さ
  0
POINT
  8
_0-0_
 62
    4
 10
5062.6458821698852
 20
4335.1187612431377
  0
POINT
  8
_0-0_
 62
    4
 10
5072.6455107744932
 20
4335.1187612431377
  0
POINT
  8
_0-0_
 62
    4
 10
5082.645769290194
 20
4335.1187612431377
  0
POINT
  8
_0-0_
 62
    4
 10
5062.6458821698852
 20
4365.1186969087839
  0
POINT
  8
_0-0_
 62
    4
 10
5082.645769290194
 20
4365.1186969087839
  0
LINE
  8
_0-0_
  6
CONTINUOUS
 62
    7
 10
4797.0691319878424
 20
2913.499955563932
 11
5087.0690700100586
 21
2913.499955563932
  0
LINE
  8
_0-0_
  6
CONTINUOUS
 62
    7
 10
5087.0690700100586
 20
2913.499955563932
 11
5087.0690700100586
 21
3013.5001260617528
  0
LINE
  8
_0-0_
  6
CONTINUOUS
 62
    7
 10
5087.0690700100586
 20
3013.5001260617528
 11
4797.0691319878424
 21
3013.5001260617528
  0
LINE
  8
_0-0_
  6
CONTINUOUS
 62
    7
 10
5087.0690700100586
 20
3013.5001260617528
 11
5107.0691671007316
 21
3013.5001260617528
  0
LINE
  8
_0-0_
  6
CONTINUOUS
 62
    7
 10
5397.069052630357
 20
2913.499955563932
 11
5107.0691671007316
 21
2913.499955563932
  0
LINE
  8
_0-0_
  6
CONTINUOUS
 62
    7
 10
5107.0691671007316
 20
2913.499955563932
 11
5107.0691671007316
 21
3013.5001260617528
  0
LINE
  8
_0-0_
  6
CONTINUOUS
 62
    7
 10
5107.0691671007316
 20
3013.5001260617528
 11
5397.069052630357
 21
3013.5001260617528
  0
LINE
  8
_0-0_
  6
CONTINUOUS
 62
    7
 10
4877.069100409808
 20
2913.499955563932
 11
4977.0691659224467
 21
3013.5001260617528
  0
LINE
  8
_0-0_
  6
CONTINUOUS
 62
    7
 10
4887.0691489551446
 20
2913.499955563932
 11
4987.0692144677832
 21
3013.5001260617528
  0
LINE
  8
_0-0_
  6
CONTINUOUS
 62
    7
 10
5217.0690711883435
 20
2913.499955563932
 11
5317.0690842083914
 21
3013.5001260617528
  0
LINE
  8
_0-0_
  6
CONTINUOUS
 62
    7
 10
5227.0691197336801
 20
2913.499955563932
 11
5327.0689227833636
 21
3013.5001260617528
  0
LINE
  8
_0-0_
  6
DASHED1
 62
    7
 10
4797.0691319878424
 20
2973.5000368655883
 11
5087.0690700100586
 21
2973.5000368655883
  0
LINE
  8
_0-0_
  6
DASHED1
 62
    7
 10
5397.069052630357
 20
2973.5000368655883
 11
5107.0691671007316
 21
2973.5000368655883
  0
LINE
  8
_0-0_
  6
DASHED1
 62
    7
 10
4847.0691647441618
 20
2997.4999644010682
 11
5347.0690198740376
 21
2997.4999644010682
  0
LINE
  8
_0-0_
  6
DASHED1
 62
    7
 10
5347.0690198740376
 20
2997.4999644010682
 11
5347.0690198740376
 21
2988.5000046984114
  0
LINE
  8
_0-0_
  6
DASHED1
 62
    7
 10
5347.0690198740376
 20
2988.5000046984114
 11
4847.0691647441618
 21
2988.5000046984114
  0
LINE
  8
_0-0_
  6
DASHED1
 62
    7
 10
4847.0691647441618
 20
2988.5000046984114
 11
4847.0691647441618
 21
2997.4999644010682
  0
LINE
  8
_0-0_
  6
DASHED1
 62
    7
 10
5094.0690619977213
 20
2913.499955563932
 11
5094.0690619977213
 21
3006.4999241037258
  0
LINE
  8
_0-0_
  6
DASHED1
 62
    7
 10
5094.0690619977213
 20
3006.4999241037258
 11
5100.0691751130689
 21
3006.4999241037258
  0
LINE
  8
_0-0_
  6
DASHED1
 62
    7
 10
5100.0691751130689
 20
3006.4999241037258
 11
5100.0691751130689
 21
2913.499955563932
  0
LINE
  8
_0-0_
  6
CONTINUOUS
 62
    7
 10
5087.0690700100586
 20
2901.5001492739648
 11
4997.0690530427564
 21
2901.5001492739648
  0
LINE
  8
_0-0_
  6
CONTINUOUS
 62
    7
 10
4997.0690530427564
 20
2901.5001492739648
 11
4997.0690530427564
 21
2913.499955563932
  0
LINE
  8
_0-0_
  6
CONTINUOUS
 62
    7
 10
4997.0690530427564
 20
2913.499955563932
 11
5197.0691840680338
 21
2913.499955563932
  0
LINE
  8
_0-0_
  6
CONTINUOUS
 62
    7
 10
5197.0691840680338
 20
2913.499955563932
 11
5197.0691840680338
 21
2901.5001492739648
  0
LINE
  8
_0-0_
  6
CONTINUOUS
 62
    7
 10
5197.0691840680338
 20
2901.5001492739648
 11
5107.0691671007316
 21
2901.5001492739648
  0
LINE
  8
_0-0_
  6
CONTINUOUS
 62
    4
 10
5087.0690700100586
 20
3043.5002716977624
 11
5087.0690700100586
 21
3133.5002886650645
  0
LINE
  8
_0-0_
  6
CONTINUOUS
 62
    4
 10
5097.0689085850317
 20
3043.5002716977624
 11
5097.0689085850317
 21
3133.5002886650645
  0
LINE
  8
_0-0_
  6
CONTINUOUS
 62
    4
 10
5107.0691671007316
 20
3043.5002716977624
 11
5107.0691671007316
 21
3133.5002886650645
  0
LINE
  8
_0-0_
  6
CONTINUOUS
 62
    4
 10
4797.0691319878424
 20
3163.500014360347
 11
5087.0690700100586
 21
3163.500014360347
  0
LINE
  8
_0-0_
  6
CONTINUOUS
 62
    4
 10
5087.0690700100586
 20
3133.5002886650645
 11
5087.0690700100586
 21
3163.500014360347
  0
LINE
  8
_0-0_
  6
CONTINUOUS
 62
    4
 10
5087.0690700100586
 20
3163.500014360347
 11
5107.0691671007316
 21
3163.500014360347
  0
LINE
  8
_0-0_
  6
CONTINUOUS
 62
    4
 10
5107.0691671007316
 20
3133.5002886650645
 11
5107.0691671007316
 21
3163.500014360347
  0
LINE
  8
_0-0_
  6
CONTINUOUS
 62
    4
 10
5107.0691671007316
 20
3163.500014360347
 11
5397.069052630357
 21
3163.500014360347
  0
LINE
  8
_0-0_
  6
CONTINUOUS
 62
    4
 10
4797.0691319878424
 20
3163.500014360347
 11
4815.481013246892
 21
3171.2962139674596
  0
LINE
  8
_0-0_
  6
CONTINUOUS
 62
    4
 10
4815.481013246892
 20
3171.2962139674596
 11
4821.0679046863224
 21
3163.500014360347
  0
LINE
  8
_0-0_
  6
CONTINUOUS
 62
    4
 10
5397.069052630357
 20
3163.500014360347
 11
5378.6569614009431
 21
3171.2962139674596
  0
LINE
  8
_0-0_
  6
CONTINUOUS
 62
    4
 10
5378.6569614009431
 20
3171.2962139674596
 11
5373.0700699615136
 21
3163.500014360347
  0
LINE
  8
_0-0_
  6
CONTINUOUS
 62
    7
 10
5087.0690700100586
 20
2725.4999457841677
 11
4997.0690530427564
 21
2725.4999457841677
  0
LINE
  8
_0-0_
  6
CONTINUOUS
 62
    7
 10
4997.0690530427564
 20
2725.4999457841677
 11
4997.0690530427564
 21
2713.4998245386541
  0
LINE
  8
_0-0_
  6
CONTINUOUS
 62
    7
 10
4997.0690530427564
 20
2713.4998245386541
 11
5197.0691840680338
 21
2713.4998245386541
  0
LINE
  8
_0-0_
  6
CONTINUOUS
 62
    7
 10
5197.0691840680338
 20
2713.4998245386541
 11
5197.0691840680338
 21
2725.4999457841677
  0
LINE
  8
_0-0_
  6
CONTINUOUS
 62
    7
 10
5197.0691840680338
 20
2725.4999457841677
 11
5107.0691671007316
 21
2725.4999457841677
  0
LINE
  8
_0-0_
  6
CONTINUOUS
 62
    7
 10
5093.0689731550419
 20
2895.500246128981
 11
5093.0689731550419
 21
2731.4998489291511
  0
LINE
  8
_0-0_
  6
CONTINUOUS
 62
    7
 10
5101.069053985384
 20
2731.4998489291511
 11
5101.069053985384
 21
2895.500246128981
  0
ARC
  8
_0-0_
  6
CONTINUOUS
 62
    7
 10
5094.0690619977213
 20
2913.499955563932
 40
4.99999843647121
 50
90
 51
180
  0
ARC
  8
_0-0_
  6
CONTINUOUS
 62
    7
 10
5094.0690619977213
 20
2913.499955563932
 40
2.9999999640991333
 50
90
 51
180
  0
ARC
  8
_0-0_
  6
CONTINUOUS
 62
    7
 10
5100.0691751130689
 20
2913.499955563932
 40
4.99999843647121
 50
0
 51
90
  0
ARC
  8
_0-0_
  6
CONTINUOUS
 62
    7
 10
5100.0691751130689
 20
2913.499955563932
 40
2.9999999640991333
 50
0
 51
90
  0
ARC
  8
_0-0_
  6
CONTINUOUS
 62
    7
 10
5087.0690700100586
 20
2895.500246128981
 40
5.9999999281982666
 50
0
 51
90
  0
ARC
  8
_0-0_
  6
CONTINUOUS
 62
    7
 10
5107.0691671007316
 20
2895.500246128981
 40
5.9999999281982666
 50
90
 51
180
  0
ARC
  8
_0-0_
  6
CONTINUOUS
 62
    7
 10
5087.0690700100586
 20
2731.4998489291511
 40
5.9999999281982666
 50
270
 51
0
  0
ARC
  8
_0-0_
  6
CONTINUOUS
 62
    7
 10
5107.0691671007316
 20
2731.4998489291511
 40
5.9999999281982666
 50
180
 51
270
  0
TEXT
  8
_0-0_
 62
    7
 10
5232.8592938806487
 20
3118.7489237398718
 40
20
 41
1
 50
0
  1
スラブプレート ｱ6 @600
  0
TEXT
  8
_0-0_
 62
    7
 10
4840.1836139219076
 20
3166.8823199621957
 40
20
 41
1
 50
0
  1
パネル長さ
  0
TEXT
  8
_0-0_
 62
    7
 10
5186.0709699767367
 20
3166.8823199621957
 40
20
 41
1
 50
0
  1
パネル長さ
  0
POINT
  8
_0-0_
 62
    4
 10
5087.0690700100586
 20
3133.5002886650645
  0
POINT
  8
_0-0_
 62
    4
 10
5097.0689085850317
 20
3133.5002886650645
  0
POINT
  8
_0-0_
 62
    4
 10
5107.0691671007316
 20
3133.5002886650645
  0
POINT
  8
_0-0_
 62
    4
 10
5087.0690700100586
 20
3163.500014360347
  0
POINT
  8
_0-0_
 62
    4
 10
5107.0691671007316
 20
3163.500014360347
  0
LINE
  8
_0-0_
  6
CONTINUOUS
 62
    7
 10
5053.7457958719651
 20
1654.5001341919181
 11
5053.7457958719651
 21
1692.4999407175426
  0
LINE
  8
_0-0_
  6
CONTINUOUS
 62
    7
 10
5056.7458524296389
 20
1692.4999407175426
 11
5056.7458524296389
 21
1654.5001341919181
  0
LINE
  8
_0-0_
  6
CONTINUOUS
 62
    7
 10
5103.7458286282845
 20
1654.5001341919181
 11
5103.7458286282845
 21
1692.4999407175426
  0
LINE
  8
_0-0_
  6
CONTINUOUS
 62
    7
 10
5100.2458326344531
 20
1692.4999407175426
 11
5100.2458326344531
 21
1654.5001341919181
  0
LINE
  8
_0-0_
  6
CONTINUOUS
 62
    7
 10
5059.7459089873119
 20
1648.5000210765704
 11
5097.7457155129368
 21
1648.5000210765704
  0
LINE
  8
_0-0_
  6
CONTINUOUS
 62
    7
 10
5059.7459089873119
 20
1651.5001826194261
 11
5097.7457155129368
 21
1651.5001826194261
  0
LINE
  8
_0-0_
  6
CONTINUOUS
 62
    7
 10
4973.7460374203638
 20
1648.5000210765704
 11
5323.7458467738716
 21
1648.5000210765704
  0
LINE
  8
_0-0_
  6
CONTINUOUS
 62
    4
 10
5273.7458140175522
 20
1933.4999348261181
 11
5023.7460701766831
 21
1933.4999348261181
  0
LINE
  8
_0-0_
  6
CONTINUOUS
 62
    4
 10
5023.7460701766831
 20
1933.4999348261181
 11
5023.7460701766831
 21
1854.1815302049793
  0
LINE
  8
_0-0_
  6
CONTINUOUS
 62
    4
 10
5273.7458140175522
 20
1933.4999348261181
 11
5255.3339327585027
 21
1941.2965543739585
  0
LINE
  8
_0-0_
  6
CONTINUOUS
 62
    4
 10
5255.3339327585027
 20
1941.2965543739585
 11
5249.7470413190713
 21
1933.4999348261181
  0
LINE
  8
_0-0_
  6
CONTINUOUS
 62
    4
 10
5082.7458526652954
 20
1609.7633235592639
 11
4983.7458759953361
 21
1609.7633235592639
  0
LINE
  8
_0-0_
  6
CONTINUOUS
 62
    4
 10
4983.7458759953361
 20
1609.7633235592639
 11
4983.7458759953361
 21
1758.4999251641821
  0
LINE
  8
_0-0_
  6
CONTINUOUS
 62
    4
 10
5082.7458526652954
 20
1609.7633235592639
 11
5082.7458526652954
 21
1677.3419701859757
  0
ARC
  8
_0-0_
  6
CONTINUOUS
 62
    7
 10
5097.7457155129368
 20
1654.5001341919181
 40
6.0000007483950002
 50
270
 51
0
  0
ARC
  8
_0-0_
  6
CONTINUOUS
 62
    7
 10
5097.7457155129368
 20
1654.5001341919181
 40
2.4999994232847884
 50
270
 51
0
  0
ARC
  8
_0-0_
  6
CONTINUOUS
 62
    7
 10
5059.7459089873119
 20
1654.5001341919181
 40
6.0000007483950002
 50
180
 51
270
  0
ARC
  8
_0-0_
  6
CONTINUOUS
 62
    7
 10
5059.7459089873119
 20
1654.5001341919181
 40
2.4999994232847884
 50
180
 51
270
  0
ARC
  8
_0-0_
  6
CONTINUOUS
 62
    7
 10
5053.7457958719651
 20
1648.5000210765704
 40
4.9999980263728432
 50
90
 51
180
  0
ARC
  8
_0-0_
  6
CONTINUOUS
 62
    7
 10
5053.7457958719651
 20
1648.5000210765704
 40
3.0000003741975001
 50
90
 51
180
  0
ARC
  8
_0-0_
  6
CONTINUOUS
 62
    7
 10
5103.7458286282845
 20
1648.5000210765704
 40
4.9999980263728432
 50
0
 51
90
  0
ARC
  8
_0-0_
  6
CONTINUOUS
 62
    7
 10
5103.7458286282845
 20
1648.5000210765704
 40
3.0000003741975001
 50
0
 51
90
  0
TEXT
  8
_0-0_
 62
    7
 10
5035.6799005969806
 20
1937.7919370290397
 40
20
 41
1
 50
0
  1
パネル長さ
  0
TEXT
  8
_0-0_
 62
    7
 10
5004.7881031092747
 20
1586.3077946813873
 40
20
 41
1
 50
0
  1
50以上
  0
POINT
  8
_0-0_
 62
    4
 10
5023.7460701766831
 20
1933.4999348261181
  0
POINT
  8
_0-0_
 62
    4
 10
5082.7458526652954
 20
1609.7633235592639
  0
POINT
  8
_0-0_
 62
    4
 10
4983.7458759953361
 20
1609.7633235592639
  0
LINE
  8
_0-0_
  6
CONTINUOUS
 62
    4
 10
4974.5914505933579
 20
4263.5234865425164
 11
5031.8627570473436
 21
4164.326872626877
  0
LINE
  8
_0-0_
  6
CONTINUOUS
 62
    4
 10
5074.2286873173871
 20
4146.2291070320416
 11
5180.7479126846356
 21
4330.7259712625173
  0
LINE
  8
_0-0_
  6
CONTINUOUS
 62
    4
 10
5215.4864595200434
 20
4291.2704402048139
 11
5153.2155487341197
 21
4183.4143335313856
  0
LINE
  8
_0-0_
  6
CONTINUOUS
 62
    4
 10
5212.9638755696042
 20
4261.0009025920754
 11
5175.3984977266373
 21
4195.9359161753437
  0
LINE
  8
_0-0_
  6
CONTINUOUS
 62
    4
 10
4974.5914505933579
 20
4263.5232765721521
 11
4964.5019546730518
 21
4263.5232765721521
  0
LINE
  8
_0-0_
  6
CONTINUOUS
 62
    4
 10
5115.4252926315457
 20
3952.4898723139245
 11
5075.5273540173594
 21
4021.5950034853095
  0
LINE
  8
_0-0_
  6
CONTINUOUS
 62
    4
 10
5162.9443155694526
 20
4025.8465883962881
 11
5120.7201152949601
 21
4098.980945863409
  0
TEXT
  8
_0-0_
 62
    7
 10
4821.7929606845864
 20
4255.96031527988
 40
20
 41
1
 50
0
  1
シポレックス
  0
TEXT
  8
_0-0_
 62
    7
 10
5218.0095552882212
 20
4317.521111349768
 40
20
 41
1
 50
0
  1
スラブプレート ｱ6 @600
  0
LINE
  8
_0-0_
  6
CONTINUOUS
 62
    4
 10
5180.7479126846356
 20
4330.7255513217897
 11
5208.8962530723911
 21
4330.7255513217897
  0
TEXT
  8
_0-0_
 62
    7
 10
5234.7785921419381
 20
4281.0406396046492
 40
20
 41
1
 50
0
  1
モルタル充てん
  0
LINE
  8
_0-0_
  6
CONTINUOUS
 62
    4
 10
5215.4864595200434
 20
4291.2702302344505
 11
5233.2165675691376
 21
4291.2702302344505
  0
LINE
  8
_0-0_
  6
CONTINUOUS
 62
    4
 10
5212.9638755696042
 20
4261.000692621712
 11
5240.0566560213474
 21
4261.000692621712
  0
TEXT
  8
_0-0_
 62
    7
 10
5188.577412779141
 20
4012.757170312424
 40
20
 41
1
 50
0
  1
チャンネル
  0
TEXT
  8
_0-0_
 62
    7
 10
5187.3181400528656
 20
3985.3968165035849
 40
20
 41
1
 50
0
  1
[-100x50x20x3.2
  0
TEXT
  8
_0-0_
 62
    7
 10
5139.7959090915765
 20
3940.5562366502099
 40
20
 41
1
 50
0
  1
大梁
  0
LINE
  8
_0-0_
  6
CONTINUOUS
 62
    4
 10
5115.4252926315457
 20
3952.4898723139245
 11
5136.6953194101789
 21
3952.4898723139245
  0
LINE
  8
_0-0_
  6
CONTINUOUS
 62
    4
 10
5162.9443155694526
 20
4025.8465883962881
 11
5183.8159287476228
 21
4025.8465883962881
  0
TEXT
  8
_0-0_
 62
    7
 10
4841.9971265209379
 20
3053.536996255435
 40
20
 41
1
 50
0
  1
シポレックス
  0
TEXT
  8
_0-0_
 62
    7
 10
5143.6522098159276
 20
2832.9387404268537
 40
20
 41
1
 50
0
  1
小梁
  0
TEXT
  8
_0-0_
 62
    7
 10
5262.4822726848179
 20
3080.9627253584476
 40
20
 41
1
 50
0
  1
モルタル充てん
  0
LINE
  8
_0-0_
  6
CONTINUOUS
 62
    4
 10
4999.0146384335321
 20
3061.9045940237156
 11
5056.2857349171536
 21
2962.7077701377134
  0
LINE
  8
_0-0_
  6
CONTINUOUS
 62
    4
 10
4999.0146384335321
 20
3061.9045940237156
 11
4979.1450350853947
 21
3061.9045940237156
  0
LINE
  8
_0-0_
  6
CONTINUOUS
 62
    4
 10
5098.6518751575604
 20
2944.6101095280592
 11
5205.1711005248089
 21
3129.1070787437175
  0
LINE
  8
_0-0_
  6
CONTINUOUS
 62
    4
 10
5205.1711005248089
 20
3129.1070787437175
 11
5230.2718609816438
 21
3129.1070787437175
  0
LINE
  8
_0-0_
  6
CONTINUOUS
 62
    4
 10
5239.9096473602185
 20
3089.6517576563774
 11
5177.6387365742921
 21
2981.7956509829492
  0
LINE
  8
_0-0_
  6
CONTINUOUS
 62
    4
 10
5239.9096473602185
 20
3089.6517576563774
 11
5257.6975900846555
 21
3089.6517576563774
  0
LINE
  8
_0-0_
  6
CONTINUOUS
 62
    4
 10
5237.3868534394151
 20
3059.3822200436393
 11
5259.4862245913746
 21
3059.3822200436393
  0
LINE
  8
_0-0_
  6
CONTINUOUS
 62
    4
 10
5237.3868534394151
 20
3059.3822200436393
 11
5199.8218955371758
 21
2994.3172336269072
  0
LINE
  8
_0-0_
  6
CONTINUOUS
 62
    4
 10
5132.6483867273764
 20
2842.62865867762
 11
5118.1062592727731
 21
2842.62865867762
  0
LINE
  8
_0-0_
  6
CONTINUOUS
 62
    4
 10
5118.1062592727731
 20
2842.62865867762
 11
5098.5662072491396
 21
2876.4728367485131
  0
TEXT
  8
_0-0_
 62
    7
 10
5059.3035864203366
 20
3136.3974641131454
 40
20
 41
1
 50
0
  1
10
  0
TEXT
  8
_0-0_
 62
    7
 10
5114.0453932500541
 20
3136.9892674302237
 40
20
 41
1
 50
0
  1
10
  0
TEXT
  8
_0-0_
 62
    7
 10
5086.9703914937345
 20
3166.1355807963168
 40
20
 41
1
 50
0
  1
20
  0
LINE
  8
_0-0_
  6
CONTINUOUS
 62
    4
 10
5059.2486670055268
 20
3133.5002886650645
 11
5097.0689085850317
 21
3133.5002886650645
  0
LINE
  8
_0-0_
  6
CONTINUOUS
 62
    4
 10
5097.0689085850317
 20
3133.5002886650645
 11
5142.2490822257214
 21
3133.5002886650645
  0
TEXT
  8
_0-0_
 62
    7
 10
5154.5408846528098
 20
1824.394183049531
 40
20
 41
1
 50
0
  1
モルタル充てん
  0
TEXT
  8
_0-0_
 62
    7
 10
5149.7883016102678
 20
1872.2148747566252
 40
20
 41
1
 50
0
  1
L=500　@600
  0
TEXT
  8
_0-0_
 62
    7
 10
5252.6922664281938
 20
1609.6592700898045
 40
20
 41
1
 50
0
  1
シポレックス
  0
TEXT
  8
_0-0_
 62
    7
 10
5181.7815428517033
 20
1574.9289346737633
 40
20
 41
1
 50
0
  1
角パイプ ﾛ-50x3.2
  0
LINE
  8
_0-0_
  6
CONTINUOUS
 62
    4
 10
5123.9842420818468
 20
1905.184171448343
 11
5145.1622107106105
 21
1905.184171448343
  0
LINE
  8
_0-0_
  6
CONTINUOUS
 62
    4
 10
5051.2188025438845
 20
1779.1507204122067
 11
5123.9842420818468
 21
1905.184171448343
  0
LINE
  8
_0-0_
  6
CONTINUOUS
 62
    4
 10
5124.1790945794346
 20
1863.9306641656001
 11
5151.252083328558
 21
1863.9306641656001
  0
LINE
  8
_0-0_
  6
CONTINUOUS
 62
    4
 10
5078.9699556134583
 20
1785.6259964607857
 11
5124.1790945794346
 21
1863.9306641656001
  0
LINE
  8
_0-0_
  6
CONTINUOUS
 62
    4
 10
5124.1927751685325
 20
1836.1419583348861
 11
5145.3284858476291
 21
1836.1419583348861
  0
LINE
  8
_0-0_
  6
CONTINUOUS
 62
    4
 10
5124.1927751685325
 20
1836.1419583348861
 11
5091.1702836008353
 21
1778.9448444705213
  0
LINE
  8
_0-0_
  6
CONTINUOUS
 62
    4
 10
5228.8251743314095
 20
1620.9698618148745
 11
5248.3341130065664
 21
1620.9698618148745
  0
LINE
  8
_0-0_
  6
CONTINUOUS
 62
    4
 10
5228.8251743314095
 20
1620.9698618148745
 11
5168.6096634365167
 21
1725.2662359259764
  0
LINE
  8
_0-0_
  6
CONTINUOUS
 62
    4
 10
5152.6693433295095
 20
1583.636763686839
 11
5170.6206892043347
 21
1583.636763686839
  0
LINE
  8
_0-0_
  6
CONTINUOUS
 62
    4
 10
5152.6693433295095
 20
1583.636763686839
 11
5102.8377068049404
 21
1669.9478638255
  0
LINE
  8
_0-0_
  6
CONTINUOUS
 62
    4
 10
5042.8575706854872
 20
4335.1187612431377
 11
5072.6455107744932
 21
4335.1187612431377
  0
LINE
  8
_0-0_
  6
CONTINUOUS
 62
    4
 10
5072.6455107744932
 20
4335.1187612431377
 11
5110.6907185954169
 21
4335.1187612431377
  0
TEXT
  8
_0-0_
 62
    7
 10
5038.2307136515574
 20
4337.8987491819935
 40
20
 41
1
 50
0
  1
10
  0
TEXT
  8
_0-0_
 62
    7
 10
5087.2957969223762
 20
4338.9712100185134
 40
20
 41
1
 50
0
  1
10
  0
TEXT
  8
_0-0_
 62
    7
 10
5062.0929672641414
 20
4369.2682286502213
 40
20
 41
1
 50
0
  1
20
  0
TEXT
  8
_0-0_
 62
    7
 10
5243.2400270333392
 20
4248.3602169996466
 40
20
 41
1
 50
0
  1
目地鉄筋φ9 L=1000 @600
  0
TEXT
  8
_0-0_
 62
    7
 10
5260.1458050611973
 20
3047.5751673037917
 40
20
 41
1
 50
-0.0000636529966632
  1
目地鉄筋φ9 L=1000 @600
  0
TEXT
  8
_0-0_
 62
    7
 10
5146.4141298902741
 20
1894.5144204246492
 40
20
 41
1
 50
0
  1
目地鉄筋φ9
  0
TEXT
  8
_0-0_
 62
    7
 10
5154.790562776835
 20
1849.7576438444537
 40
20
 41
1
 50
0
  1
マルカン　@600
  0
TEXT
  8
_0-0_
 62
    7
 10
6172.7469967253046
 20
1869.8483484334099
 40
20
 41
1
 50
0.0000668356276313
  1
L=500　@600
  0
LINE
  8
_0-0_
  6
CONTINUOUS
 62
    4
 10
6147.3722837219048
 20
1905.1843814187066
 11
6164.984183303779
 21
1905.1843814187066
  0
LINE
  8
_0-0_
  6
CONTINUOUS
 62
    7
 10
6077.133837512024
 20
1798.500014360347
 11
6077.133837512024
 21
1698.50005383289
  0
LINE
  8
_0-0_
  6
DASHED1
 62
    7
 10
6007.133917635394
 20
1773.500102967369
 11
6007.133917635394
 21
1782.5000626700266
  0
LINE
  8
_0-0_
  6
DASHED1
 62
    7
 10
6097.1337246323328
 20
1707.4996985800017
 11
6097.1337246323328
 21
1788.4999658150105
  0
LINE
  8
_0-0_
  6
DASHED1
 62
    7
 10
6106.1336843349909
 20
1788.4999658150105
 11
6106.1336843349909
 21
1713.5001266508948
  0
LINE
  8
_0-0_
  6
DASHED1
 62
    7
 10
6127.1338702683424
 20
1707.4996985800017
 11
6112.1337974503376
 21
1707.4996985800017
  0
LINE
  8
_0-0_
  6
DASHED1
 62
    7
 10
6127.1338702683424
 20
1698.50005383289
 11
6127.1338702683424
 21
1707.4996985800017
  0
LINE
  8
_0-0_
  6
DASHED1
 62
    7
 10
6106.1336843349909
 20
1698.50005383289
 11
6106.1336843349909
 21
1701.5001103905638
  0
LINE
  8
_0-0_
  6
DASHED1
 62
    7
 10
6109.1339508630281
 20
1698.50005383289
 11
6109.1339508630281
 21
1701.5001103905638
  0
LINE
  8
_0-0_
  6
DASHED1
 62
    7
 10
6112.1337974503376
 20
1698.50005383289
 11
6112.1337974503376
 21
1701.5001103905638
  0
LINE
  8
_0-0_
  6
DASHED1
 62
    7
 10
6115.133644037649
 20
1698.50005383289
 11
6115.133644037649
 21
1701.5001103905638
  0
LINE
  8
_0-0_
  6
DASHED1
 62
    7
 10
6118.1339105656862
 20
1698.50005383289
 11
6118.1339105656862
 21
1701.5001103905638
  0
LINE
  8
_0-0_
  6
DASHED1
 62
    7
 10
6121.1337571529948
 20
1698.50005383289
 11
6121.1337571529948
 21
1701.5001103905638
  0
LINE
  8
_0-0_
  6
DASHED1
 62
    7
 10
6124.1342336513972
 20
1698.50005383289
 11
6124.1342336513972
 21
1701.5001103905638
  0
ARC
  8
_0-0_
  6
DASHED1
 62
    7
 10
6101.6342294095721
 20
1788.4999658150105
 40
4.4999978956568656
 50
0
 51
180
  0
ARC
  8
_0-0_
  6
DASHED1
 62
    7
 10
6101.6342294095721
 20
1768.5001836798824
 40
4.4999978956568656
 50
180
 51
0
  0
ARC
  8
_0-0_
  6
DASHED1
 62
    7
 10
6106.1336843349909
 20
1707.4996985800017
 40
8.9999998922973994
 50
180
 51
270
  0
ARC
  8
_0-0_
  6
DASHED1
 62
    7
 10
6112.1337974503376
 20
1713.5001266508948
 40
6.0000007483950002
 50
180
 51
270
  0
ARC
  8
_0-0_
  6
CONTINUOUS
 62
    7
 10
6097.1337246323328
 20
1698.50005383289
 40
4.9999980263728432
 50
90
 51
180
  0
ARC
  8
_0-0_
  6
CONTINUOUS
 62
    7
 10
6097.1337246323328
 20
1698.50005383289
 40
3.0000003741975001
 50
90
 51
180
  0
LINE
  8
_0-0_
  6
CONTINUOUS
 62
    7
 10
5929.5097736134085
 20
2903.5000120037776
 11
6279.5095829669172
 21
2903.5000120037776
  0
LINE
  8
_0-0_
  6
CONTINUOUS
 62
    7
 10
5997.1338690900575
 20
1798.500014360347
 11
6297.1338556576111
 21
1798.500014360347
  0
LINE
  8
_0-0_
  6
CONTINUOUS
 62
    7
 10
6077.133837512024
 20
1698.50005383289
 11
6297.1338556576111
 21
1698.50005383289
  0
LINE
  8
_0-0_
  6
CONTINUOUS
 62
    7
 10
6277.1337585669371
 20
1798.500014360347
 11
6177.1339030246618
 21
1698.50005383289
  0
LINE
  8
_0-0_
  6
CONTINUOUS
 62
    7
 10
6287.134017082637
 20
1798.500014360347
 11
6187.1339515699992
 21
1698.50005383289
  0
LINE
  8
_0-0_
  6
DASHED1
 62
    7
 10
6077.133837512024
 20
1758.5000301493642
 11
6297.1338556576111
 21
1758.5000301493642
  0
LINE
  8
_0-0_
  6
DASHED1
 62
    7
 10
6007.133917635394
 20
1782.5000626700266
 11
6277.1337585669371
 21
1782.5000626700266
  0
LINE
  8
_0-0_
  6
DASHED1
 62
    7
 10
6277.1337585669371
 20
1782.5000626700266
 11
6277.1337585669371
 21
1773.500102967369
  0
LINE
  8
_0-0_
  6
DASHED1
 62
    7
 10
6277.1337585669371
 20
1773.500102967369
 11
6007.133917635394
 21
1773.500102967369
  0
LINE
  8
_0-0_
  6
CONTINUOUS
 62
    7
 10
5997.1338690900575
 20
1698.50005383289
 11
6347.1338884139295
 21
1698.50005383289
  0
LINE
  8
_0-0_
  6
CONTINUOUS
 62
    4
 10
6077.133837512024
 20
1933.4999348261181
 11
6077.133837512024
 21
1854.1815302049793
  0
LINE
  8
_0-0_
  6
CONTINUOUS
 62
    4
 10
6297.1338556576111
 20
1933.4999348261181
 11
6278.7219743985606
 21
1941.2968693295038
  0
LINE
  8
_0-0_
  6
CONTINUOUS
 62
    4
 10
6278.7219743985606
 20
1941.2968693295038
 11
6273.1352929294953
 21
1933.4999348261181
  0
LINE
  8
_0-0_
  6
CONTINUOUS
 62
    4
 10
6297.1338556576111
 20
1933.4999348261181
 11
6077.133837512024
 21
1933.4999348261181
  0
LINE
  8
_0-0_
  6
CONTINUOUS
 62
    4
 10
6106.1336843349909
 20
1611.0277650899407
 11
6007.133917635394
 21
1611.0277650899407
  0
LINE
  8
_0-0_
  6
CONTINUOUS
 62
    4
 10
6007.133917635394
 20
1611.0277650899407
 11
6007.133917635394
 21
1758.5000301493642
  0
LINE
  8
_0-0_
  6
CONTINUOUS
 62
    4
 10
6106.1336843349909
 20
1611.0277650899407
 11
6106.1336843349909
 21
1684.0727801672738
  0
TEXT
  8
_0-0_
 62
    7
 10
6129.9892120699305
 20
1937.7921469994033
 40
20
 41
1
 50
0
  1
パネル長さ
  0
TEXT
  8
_0-0_
 62
    7
 10
6026.0007467954001
 20
1588.4832976205012
 40
20
 41
1
 50
0
  1
50以上
  0
POINT
  8
_0-0_
 62
    4
 10
6077.133837512024
 20
1933.4999348261181
  0
POINT
  8
_0-0_
 62
    4
 10
6106.1336843349909
 20
1611.0277650899407
  0
POINT
  8
_0-0_
 62
    4
 10
6007.133917635394
 20
1611.0277650899407
  0
LINE
  8
_0-0_
  6
CONTINUOUS
 62
    7
 10
6271.9640209633317
 20
4147.2035619080289
 11
6032.96399456975
 21
4147.2035619080289
  0
LINE
  8
_0-0_
  6
CONTINUOUS
 62
    7
 10
6032.96399456975
 20
4147.2035619080289
 11
6021.9638571817341
 21
4158.2034893256814
  0
LINE
  8
_0-0_
  6
CONTINUOUS
 62
    7
 10
6021.9638571817341
 20
4158.2034893256814
 11
6021.9638571817341
 21
4236.2034900326526
  0
LINE
  8
_0-0_
  6
CONTINUOUS
 62
    7
 10
6021.9638571817341
 20
4236.2034900326526
 11
6032.96399456975
 21
4247.2034174503042
  0
LINE
  8
_0-0_
  6
CONTINUOUS
 62
    7
 10
6032.96399456975
 20
4247.2034174503042
 11
6271.9640209633317
 21
4247.2034174503042
  0
LINE
  8
_0-0_
  6
CONTINUOUS
 62
    7
 10
6032.96399456975
 20
4247.2034174503042
 11
5971.9638244254147
 21
4247.2034174503042
  0
LINE
  8
_0-0_
  6
CONTINUOUS
 62
    7
 10
6251.9639238726586
 20
4247.2034174503042
 11
6151.9640683303824
 21
4147.2035619080289
  0
LINE
  8
_0-0_
  6
CONTINUOUS
 62
    7
 10
6261.9639724179942
 20
4247.2034174503042
 11
6161.9641168757198
 21
4147.2035619080289
  0
LINE
  8
_0-0_
  6
DASHED1
 62
    7
 10
6091.9639870287265
 20
4156.2035216106869
 11
6091.9639870287265
 21
4242.2036031479993
  0
LINE
  8
_0-0_
  6
DASHED1
 62
    7
 10
6091.9639870287265
 20
4242.2036031479993
 11
6103.9642132594217
 21
4242.2036031479993
  0
LINE
  8
_0-0_
  6
DASHED1
 62
    7
 10
6103.9642132594217
 20
4242.2036031479993
 11
6103.9642132594217
 21
4165.2035862985267
  0
LINE
  8
_0-0_
  6
DASHED1
 62
    7
 10
6067.9639545080636
 20
4247.2034174503042
 11
6067.9639545080636
 21
4222.2035060573262
  0
LINE
  8
_0-0_
  6
DASHED1
 62
    7
 10
6067.9639545080636
 20
4222.2035060573262
 11
6127.9640358097204
 21
4222.2035060573262
  0
LINE
  8
_0-0_
  6
DASHED1
 62
    7
 10
6127.9640358097204
 20
4222.2035060573262
 11
6127.9640358097204
 21
4247.2034174503042
  0
LINE
  8
_0-0_
  6
DASHED1
 62
    7
 10
6072.9639787807337
 20
4222.2035060573262
 11
6072.9639787807337
 21
4226.7034859086552
  0
LINE
  8
_0-0_
  6
DASHED1
 62
    7
 10
6072.9639787807337
 20
4226.7034859086552
 11
6122.9640115370521
 21
4226.7034859086552
  0
LINE
  8
_0-0_
  6
DASHED1
 62
    7
 10
6122.9640115370521
 20
4226.7034859086552
 11
6122.9640115370521
 21
4222.2035060573262
  0
LINE
  8
_0-0_
  6
DASHED1
 62
    7
 10
6082.9640273260702
 20
4226.7034859086552
 11
6082.9640273260702
 21
4237.7036232966711
  0
LINE
  8
_0-0_
  6
DASHED1
 62
    7
 10
6082.9640273260702
 20
4237.7036232966711
 11
6112.9641729620789
 21
4237.7036232966711
  0
LINE
  8
_0-0_
  6
DASHED1
 62
    7
 10
6112.9641729620789
 20
4237.7036232966711
 11
6112.9641729620789
 21
4226.7034859086552
  0
LINE
  8
_0-0_
  6
DASHED1
 62
    7
 10
6131.9639712397093
 20
4159.2034731831782
 11
6109.9639064340417
 21
4159.2034731831782
  0
LINE
  8
_0-0_
  6
DASHED1
 62
    7
 10
6131.9639712397093
 20
4147.2035619080289
 11
6131.9639712397093
 21
4159.2034731831782
  0
LINE
  8
_0-0_
  6
DASHED1
 62
    7
 10
6100.9639467313846
 20
4147.2035619080289
 11
6100.9639467313846
 21
4150.203513480521
  0
LINE
  8
_0-0_
  6
DASHED1
 62
    7
 10
6103.9642132594217
 20
4147.2035619080289
 11
6103.9642132594217
 21
4150.203513480521
  0
LINE
  8
_0-0_
  6
DASHED1
 62
    7
 10
6106.9640598467322
 20
4147.2035619080289
 11
6106.9640598467322
 21
4150.203513480521
  0
LINE
  8
_0-0_
  6
DASHED1
 62
    7
 10
6109.9639064340417
 20
4147.2035619080289
 11
6109.9639064340417
 21
4150.203513480521
  0
LINE
  8
_0-0_
  6
DASHED1
 62
    7
 10
6112.9641729620789
 20
4147.2035619080289
 11
6112.9641729620789
 21
4150.203513480521
  0
LINE
  8
_0-0_
  6
DASHED1
 62
    7
 10
6115.9640195493903
 20
4147.2035619080289
 11
6115.9640195493903
 21
4150.203513480521
  0
LINE
  8
_0-0_
  6
DASHED1
 62
    7
 10
6118.9640761070632
 20
4147.2035619080289
 11
6118.9640761070632
 21
4150.203513480521
  0
LINE
  8
_0-0_
  6
DASHED1
 62
    7
 10
6121.9641326647361
 20
4147.2035619080289
 11
6121.9641326647361
 21
4150.203513480521
  0
LINE
  8
_0-0_
  6
DASHED1
 62
    7
 10
6124.9639792520475
 20
4147.2035619080289
 11
6124.9639792520475
 21
4150.203513480521
  0
LINE
  8
_0-0_
  6
DASHED1
 62
    7
 10
6127.9640358097204
 20
4147.2035619080289
 11
6127.9640358097204
 21
4150.203513480521
  0
LINE
  8
_0-0_
  6
CONTINUOUS
 62
    7
 10
6271.9640209633317
 20
4097.2035291517104
 11
6051.9640028177446
 21
4097.2035291517104
  0
LINE
  8
_0-0_
  6
CONTINUOUS
 62
    7
 10
6051.9640028177446
 20
4097.2035291517104
 11
6051.9640028177446
 21
4147.2035619080289
  0
LINE
  8
_0-0_
  6
CONTINUOUS
 62
    7
 10
6051.9640028177446
 20
4147.2035619080289
 11
6271.9640209633317
 21
4147.2035619080289
  0
LINE
  8
_0-0_
  6
DASHED1
 62
    7
 10
6051.9640028177446
 20
4100.2034807242017
 11
6271.9640209633317
 21
4100.2034807242017
  0
LINE
  8
_0-0_
  6
DASHED1
 62
    7
 10
6271.9640209633317
 20
4143.7035659141975
 11
6051.9640028177446
 21
4143.7035659141975
  0
LINE
  8
_0-0_
  6
CONTINUOUS
 62
    7
 10
5971.9638244254147
 20
4097.2035291517104
 11
6321.9640537196501
 21
4097.2035291517104
  0
LINE
  8
_0-0_
  6
CONTINUOUS
 62
    4
 10
6021.9640671520983
 20
4357.2035315082794
 11
6271.9640209633317
 21
4357.2035315082794
  0
LINE
  8
_0-0_
  6
CONTINUOUS
 62
    4
 10
6021.9640671520983
 20
4357.2035315082794
 11
6021.9640671520983
 21
4286.1172249694582
  0
LINE
  8
_0-0_
  6
CONTINUOUS
 62
    4
 10
6271.9640209633317
 20
4357.2035315082794
 11
6253.5521397042812
 21
4364.9999410857563
  0
LINE
  8
_0-0_
  6
CONTINUOUS
 62
    4
 10
6253.5521397042812
 20
4364.9999410857563
 11
6247.9652482648507
 21
4357.2035315082794
  0
ARC
  8
_0-0_
  6
DASHED1
 62
    7
 10
6100.9639467313846
 20
4156.2035216106869
 40
8.9999998922973994
 50
180
 51
270
  0
ARC
  8
_0-0_
  6
DASHED1
 62
    7
 10
6109.9639064340417
 20
4165.2035862985267
 40
5.9999999281982666
 50
180
 51
270
  0
ARC
  8
_0-0_
  6
CONTINUOUS
 62
    7
 10
6091.9639870287265
 20
4147.2035619080289
 40
4.9999980263728432
 50
90
 51
180
  0
ARC
  8
_0-0_
  6
CONTINUOUS
 62
    7
 10
6091.9639870287265
 20
4147.2035619080289
 40
2.9999999640991333
 50
90
 51
180
  0
TEXT
  8
_0-0_
 62
    7
 10
6053.5105929909423
 20
4358.3477630026091
 40
20
 41
1
 50
0
  1
パネル幅
  0
POINT
  8
_0-0_
 62
    4
 10
6021.9640671520983
 20
4357.2035315082794
  0
LINE
  8
_0-0_
  6
CONTINUOUS
 62
    7
 10
6229.5097601809621
 20
2953.5000447600964
 11
5990.5097337873804
 21
2953.5000447600964
  0
LINE
  8
_0-0_
  6
CONTINUOUS
 62
    7
 10
5990.5097337873804
 20
2953.5000447600964
 11
5979.5095963993645
 21
2964.5000771629302
  0
LINE
  8
_0-0_
  6
CONTINUOUS
 62
    7
 10
6209.5096630902881
 20
3053.5000052875534
 11
6109.5095975776494
 21
2953.5000447600964
  0
LINE
  8
_0-0_
  6
CONTINUOUS
 62
    7
 10
6219.5097116356246
 20
3053.5000052875534
 11
6119.5096461229859
 21
2953.5000447600964
  0
LINE
  8
_0-0_
  6
DASHED1
 62
    7
 10
6049.5097262463569
 20
2962.5000044627541
 11
6049.5097262463569
 21
3048.5000860000673
  0
LINE
  8
_0-0_
  6
DASHED1
 62
    7
 10
6049.5097262463569
 20
3048.5000860000673
 11
6061.5097425066888
 21
3048.5000860000673
  0
LINE
  8
_0-0_
  6
DASHED1
 62
    7
 10
6061.5097425066888
 20
3048.5000860000673
 11
6061.5097425066888
 21
2971.4998591802296
  0
LINE
  8
_0-0_
  6
DASHED1
 62
    7
 10
6025.5096937256949
 20
3053.5000052875534
 11
6025.5096937256949
 21
3028.4999889093933
  0
LINE
  8
_0-0_
  6
DASHED1
 62
    7
 10
6025.5096937256949
 20
3028.4999889093933
 11
6085.5097750273508
 21
3028.4999889093933
  0
LINE
  8
_0-0_
  6
DASHED1
 62
    7
 10
6085.5097750273508
 20
3028.4999889093933
 11
6085.5097750273508
 21
3053.5000052875534
  0
LINE
  8
_0-0_
  6
DASHED1
 62
    7
 10
6030.5097179983641
 20
3028.4999889093933
 11
6030.5097179983641
 21
3032.9999687607224
  0
LINE
  8
_0-0_
  6
DASHED1
 62
    7
 10
6030.5097179983641
 20
3032.9999687607224
 11
6080.5097507546825
 21
3032.9999687607224
  0
LINE
  8
_0-0_
  6
DASHED1
 62
    7
 10
6080.5097507546825
 20
3032.9999687607224
 11
6080.5097507546825
 21
3028.4999889093933
  0
LINE
  8
_0-0_
  6
DASHED1
 62
    7
 10
6040.5095565733354
 20
3032.9999687607224
 11
6040.5095565733354
 21
3044.0001061487383
  0
LINE
  8
_0-0_
  6
DASHED1
 62
    7
 10
6040.5095565733354
 20
3044.0001061487383
 11
6070.5097022093469
 21
3044.0001061487383
  0
LINE
  8
_0-0_
  6
DASHED1
 62
    7
 10
6070.5097022093469
 20
3044.0001061487383
 11
6070.5097022093469
 21
3032.9999687607224
  0
LINE
  8
_0-0_
  6
DASHED1
 62
    7
 10
6089.5097104573406
 20
2965.5000610204274
 11
6067.5096456516721
 21
2965.5000610204274
  0
LINE
  8
_0-0_
  6
DASHED1
 62
    7
 10
6089.5097104573406
 20
2953.5000447600964
 11
6089.5097104573406
 21
2965.5000610204274
  0
LINE
  8
_0-0_
  6
DASHED1
 62
    7
 10
6058.509685949015
 20
2953.5000447600964
 11
6058.509685949015
 21
2956.5001013177698
  0
LINE
  8
_0-0_
  6
DASHED1
 62
    7
 10
6061.5097425066888
 20
2953.5000447600964
 11
6061.5097425066888
 21
2956.5001013177698
  0
LINE
  8
_0-0_
  6
DASHED1
 62
    7
 10
6064.5097990643626
 20
2953.5000447600964
 11
6064.5097990643626
 21
2956.5001013177698
  0
LINE
  8
_0-0_
  6
DASHED1
 62
    7
 10
6067.5096456516721
 20
2953.5000447600964
 11
6067.5096456516721
 21
2956.5001013177698
  0
LINE
  8
_0-0_
  6
DASHED1
 62
    7
 10
6070.5097022093469
 20
2953.5000447600964
 11
6070.5097022093469
 21
2956.5001013177698
  0
LINE
  8
_0-0_
  6
DASHED1
 62
    7
 10
6073.5097587670207
 20
2953.5000447600964
 11
6073.5097587670207
 21
2956.5001013177698
  0
LINE
  8
_0-0_
  6
DASHED1
 62
    7
 10
6076.5096053543302
 20
2953.5000447600964
 11
6076.5096053543302
 21
2956.5001013177698
  0
LINE
  8
_0-0_
  6
DASHED1
 62
    7
 10
6079.5096619120031
 20
2953.5000447600964
 11
6079.5096619120031
 21
2956.5001013177698
  0
LINE
  8
_0-0_
  6
DASHED1
 62
    7
 10
6082.5097184696779
 20
2953.5000447600964
 11
6082.5097184696779
 21
2956.5001013177698
  0
LINE
  8
_0-0_
  6
DASHED1
 62
    7
 10
6085.5097750273508
 20
2953.5000447600964
 11
6085.5097750273508
 21
2956.5001013177698
  0
LINE
  8
_0-0_
  6
CONTINUOUS
 62
    7
 10
6229.5097601809621
 20
2903.5000120037776
 11
6009.509742035375
 21
2903.5000120037776
  0
LINE
  8
_0-0_
  6
CONTINUOUS
 62
    7
 10
6009.509742035375
 20
2903.5000120037776
 11
6009.509742035375
 21
2953.5000447600964
  0
LINE
  8
_0-0_
  6
CONTINUOUS
 62
    7
 10
6009.509742035375
 20
2953.5000447600964
 11
6229.5097601809621
 21
2953.5000447600964
  0
LINE
  8
_0-0_
  6
DASHED1
 62
    7
 10
6009.509742035375
 20
2906.5000685614505
 11
6229.5097601809621
 21
2906.5000685614505
  0
LINE
  8
_0-0_
  6
DASHED1
 62
    7
 10
6229.5097601809621
 20
2950.0000487662646
 11
6009.509742035375
 21
2950.0000487662646
  0
LINE
  8
_0-0_
  6
CONTINUOUS
 62
    4
 10
5979.5098063697287
 20
3163.500014360347
 11
6229.5097601809621
 21
3163.500014360347
  0
LINE
  8
_0-0_
  6
CONTINUOUS
 62
    4
 10
5979.5098063697287
 20
3163.500014360347
 11
5979.5098063697287
 21
3092.4139177918896
  0
LINE
  8
_0-0_
  6
CONTINUOUS
 62
    4
 10
6229.5097601809621
 20
3163.500014360347
 11
6211.0978789219116
 21
3171.2964239378234
  0
LINE
  8
_0-0_
  6
CONTINUOUS
 62
    4
 10
6211.0978789219116
 20
3171.2964239378234
 11
6205.510987482483
 21
3163.500014360347
  0
LINE
  8
_0-0_
  6
CONTINUOUS
 62
    7
 10
5979.5095963993645
 20
2964.5000771629302
 11
5979.5095963993645
 21
3012.5000372190734
  0
LINE
  8
_0-0_
  6
CONTINUOUS
 62
    7
 10
6229.5097601809621
 20
3053.5000052875534
 11
5988.5097660723859
 21
3053.5000052875534
  0
LINE
  8
_0-0_
  6
CONTINUOUS
 62
    7
 10
5993.5095803746899
 20
3012.5000372190734
 11
5979.5095963993645
 21
3012.5000372190734
  0
LINE
  8
_0-0_
  6
CONTINUOUS
 62
    7
 10
5988.5097660723859
 20
3053.5000052875534
 11
5993.5095803746899
 21
3012.5000372190734
  0
ARC
  8
_0-0_
  6
DASHED1
 62
    7
 10
6058.509685949015
 20
2962.5000044627541
 40
8.9999998922973994
 50
180
 51
270
  0
ARC
  8
_0-0_
  6
DASHED1
 62
    7
 10
6067.5096456516721
 20
2971.4998591802296
 40
5.9999999281982666
 50
180
 51
270
  0
ARC
  8
_0-0_
  6
CONTINUOUS
 62
    7
 10
6049.5097262463569
 20
2953.5000447600964
 40
4.9999980263728432
 50
90
 51
180
  0
ARC
  8
_0-0_
  6
CONTINUOUS
 62
    7
 10
6049.5097262463569
 20
2953.5000447600964
 40
2.9999999640991333
 50
90
 51
180
  0
TEXT
  8
_0-0_
 62
    7
 10
6011.0562272233901
 20
3164.6443508398579
 40
20
 41
1
 50
0
  1
パネル幅
  0
POINT
  8
_0-0_
 62
    4
 10
5979.5098063697287
 20
3163.500014360347
  0
TEXT
  8
_0-0_
 62
    7
 10
6187.0874115297847
 20
4306.8067862471135
 40
20
 41
1
 50
0
  1
角座金 100x50x4.5
  0
TEXT
  8
_0-0_
 62
    7
 10
6261.9802611732684
 20
4058.4368933381711
 40
20
 41
1
 50
0
  1
シポレックス
  0
TEXT
  8
_0-0_
 62
    7
 10
6173.8617374407149
 20
4022.259766079726
 40
20
 41
1
 50
0
  1
チャンネル
  0
LINE
  8
_0-0_
  6
CONTINUOUS
 62
    4
 10
6159.0894126252215
 20
4317.0581428203795
 11
6179.5046395798145
 21
4317.0581428203795
  0
LINE
  8
_0-0_
  6
CONTINUOUS
 62
    4
 10
6159.0894126252215
 20
4317.0581428203795
 11
6106.6157190132235
 21
4226.1708960809301
  0
LINE
  8
_0-0_
  6
CONTINUOUS
 62
    4
 10
6160.2648267216573
 20
4288.8471546541305
 11
6182.9832095085112
 21
4288.8471546541305
  0
LINE
  8
_0-0_
  6
CONTINUOUS
 62
    4
 10
6160.2648267216573
 20
4288.8471546541305
 11
6101.231658945203
 21
4186.5989364565112
  0
LINE
  8
_0-0_
  6
CONTINUOUS
 62
    4
 10
6239.0209307085952
 20
4069.0358998655811
 11
6256.7288919968805
 21
4069.0358998655811
  0
LINE
  8
_0-0_
  6
CONTINUOUS
 62
    4
 10
6239.0209307085952
 20
4069.0358998655811
 11
6171.3138872044328
 21
4186.3077075619494
  0
LINE
  8
_0-0_
  6
CONTINUOUS
 62
    4
 10
6147.3348517201475
 20
4033.7720071799963
 11
6164.8946458792889
 21
4033.7720071799963
  0
LINE
  8
_0-0_
  6
CONTINUOUS
 62
    4
 10
6147.3348517201475
 20
4033.7720071799963
 11
6101.9503875004175
 21
4112.3802920308353
  0
TEXT
  8
_0-0_
 62
    7
 10
6139.3509062974899
 20
3111.9941760845486
 40
20
 41
1
 50
0
  1
角座金 100x50x4.5
  0
TEXT
  8
_0-0_
 62
    7
 10
6216.4780337551583
 20
2865.9541140259162
 40
20
 41
1
 50
0
  1
シポレックス
  0
TEXT
  8
_0-0_
 62
    7
 10
6130.3278639002065
 20
2828.8027656239005
 40
20
 41
1
 50
0
  1
チャンネル
  0
TEXT
  8
_0-0_
 62
    7
 10
6131.7092462732126
 20
2800.0630432751714
 40
20
 41
1
 50
0
  1
[-100x50x20x3.2
  0
LINE
  8
_0-0_
  6
CONTINUOUS
 62
    4
 10
6116.6349418724885
 20
3123.3546256724476
 11
6135.8835070718987
 21
3123.3546256724476
  0
LINE
  8
_0-0_
  6
CONTINUOUS
 62
    4
 10
6116.6349418724885
 20
3123.3546256724476
 11
6064.1612482604887
 21
3032.4675889033606
  0
LINE
  8
_0-0_
  6
CONTINUOUS
 62
    4
 10
6117.8105659392877
 20
3095.143637506198
 11
6142.8931954496375
 21
3095.143637506198
  0
LINE
  8
_0-0_
  6
CONTINUOUS
 62
    4
 10
6117.8105659392877
 20
3095.143637506198
 11
6058.7773981628334
 21
2992.8954193085783
  0
LINE
  8
_0-0_
  6
CONTINUOUS
 62
    4
 10
6196.5664599558613
 20
2875.3323827176478
 11
6128.8594164516999
 21
2992.6041904140166
  0
LINE
  8
_0-0_
  6
CONTINUOUS
 62
    4
 10
6196.5664599558613
 20
2875.3323827176478
 11
6212.2891103892516
 21
2875.3323827176478
  0
LINE
  8
_0-0_
  6
CONTINUOUS
 62
    4
 10
6104.8803809674155
 20
2840.0685950172456
 11
6124.6680056675168
 21
2840.0685950172456
  0
LINE
  8
_0-0_
  6
CONTINUOUS
 62
    4
 10
6104.8803809674155
 20
2840.0685950172456
 11
6059.4961267180488
 21
2918.676774882902
  0
LINE
  8
_0-0_
  6
CONTINUOUS
 62
    4
 10
6074.6068441839443
 20
1779.1507204122063
 11
6147.3722837219048
 21
1905.1843814187066
  0
LINE
  8
_0-0_
  6
CONTINUOUS
 62
    4
 10
6252.2132159714683
 20
1620.9700717852384
 11
6191.9977050765747
 21
1725.2662359259762
  0
LINE
  8
_0-0_
  6
CONTINUOUS
 62
    4
 10
6171.3070315817467
 20
1830.3749115051958
 11
6144.2511747984172
 21
1830.3749115051958
  0
LINE
  8
_0-0_
  6
CONTINUOUS
 62
    4
 10
6114.5585352112575
 20
1778.9448444705208
 11
6144.2511747984172
 21
1830.3749115051958
  0
TEXT
  8
_0-0_
 62
    7
 10
6175.7732185674331
 20
1820.2245624074208
 40
20
 41
1
 50
0
  1
モルタル充てん
  0
LINE
  8
_0-0_
  6
CONTINUOUS
 62
    4
 10
6144.276089602613
 20
1858.409702679545
 11
6173.069745528348
 21
1858.409702679545
  0
LINE
  8
_0-0_
  6
CONTINUOUS
 62
    4
 10
6102.9666789959065
 20
1786.8595748818368
 11
6144.276089602613
 21
1858.409702679545
  0
TEXT
  8
_0-0_
 62
    7
 10
6272.7091119511151
 20
1609.8867727701997
 40
20
 41
1
 50
0
  1
シポレックス
  0
LINE
  8
_0-0_
  6
CONTINUOUS
 62
    4
 10
6252.2132159714683
 20
1620.9700717852384
 11
6269.3072156975759
 21
1620.9700717852384
  0
TEXT
  8
_0-0_
 62
    7
 10
6186.1316933443959
 20
4278.2825128318009
 40
20
 41
1
 50
0
  1
フックボルト
  0
TEXT
  8
_0-0_
 62
    7
 10
6142.6693142153981
 20
3083.9551368995103
 40
20
 41
1
 50
0.0000818395963428
  1
フックボルト
  0
TEXT
  8
_0-0_
 62
    7
 10
6170.6417126901579
 20
1894.0965475078929
 40
20
 41
1
 50
0
  1
目地鉄筋φ9
  0
TEXT
  8
_0-0_
 62
    7
 10
6176.4200091562179
 20
1846.2824647811094
 40
20
 41
1
 50
0
  1
マルカン　@600
  0
TEXT
  8
_0-0_
 62
    7
 10
6174.8017122428191
 20
3995.126920635892
 40
20
 41
1
 50
0
  1
C-100x50x20x3.2
  0
TEXT
  8
_0-0_
 62
    7
 10
3605.8787165912331
 20
996.54976293784875
 40
30
 41
1
 50
0
  1
また、品質向上を目的に予告なしに設計仕様や取扱いを変更することがありますのでご了承ください。
  0
TEXT
  8
_0-0_
 62
    7
 10
3605.8787165912331
 20
1036.5497629378488
 40
30
 41
1
 50
0
  1
建築基準法等の法令・基準に適合していることを保証するものではありません。
  0
TEXT
  8
_0-0_
 62
    2
 10
3595.6133979015335
 20
3598.410008071025
 40
35.000000000000007
 41
0.9999999999999991
 50
0
  1
○　一般部
  0
TEXT
  8
_0-0_
 62
    2
 10
4614.596448748991
 20
3594.3422114608552
 40
35.000000000000007
 41
0.9999999999999991
 50
0
  1
○　一般部
  0
TEXT
  8
_0-0_
 62
    2
 10
3589.1323648103307
 20
2391.7917675544795
 40
35.000000000000007
 41
0.9999999999999991
 50
0
  1
○　小梁部
  0
TEXT
  8
_0-0_
 62
    2
 10
4606.953188054883
 20
2391.7917675544795
 40
35.000000000000007
 41
0.9999999999999991
 50
0
  1
○　小梁部
  0
TEXT
  8
_0-0_
 62
    2
 10
5643.9265536723169
 20
3592.9297820823244
 40
35.000000000000007
 41
0.9999999999999991
 50
0
  1
○　周辺部（長辺小口）
  0
TEXT
  8
_0-0_
 62
    2
 10
5641.1904761904761
 20
2391.7917675544795
 40
35.000000000000007
 41
0.9999999999999991
 50
0
  1
○　周辺部（長辺小口）
  0
TEXT
  8
_0-0_
 62
    2
 10
3587.7382206353768
 20
1181.8352690113679
 40
35.000000000000007
 41
0.9999999999999991
 50
0
  1
○　周辺部（短辺小口）
  0
TEXT
  8
_0-0_
 62
    2
 10
4612.3789688239558
 20
1187.7409793755671
 40
35.000000000000007
 41
0.9999999999999991
 50
0
  1
○　周辺部（短辺小口）
  0
TEXT
  8
_0-0_
 62
    2
 10
5639.9725721946343
 20
1184.7881241934674
 40
35.000000000000007
 41
0.9999999999999991
 50
0
  1
○　周辺部（短辺小口）
  0
LINE
  8
_0-0_
  6
CONTINUOUS
 62
    7
 10
1617.2013010297501
 20
3720.0001254873387
 11
1617.2013010297501
 21
3745.0000718753772
  0
LINE
  8
_0-0_
  6
CONTINUOUS
 62
    7
 10
1617.2013010297501
 20
3745.0000718753772
 11
1642.2012474177886
 21
3745.0000718753772
  0
LINE
  8
_0-0_
  6
CONTINUOUS
 62
    7
 10
1642.2012474177886
 20
3745.0000718753772
 11
1642.2012474177886
 21
3720.0001254873387
  0
LINE
  8
_0-0_
  6
CONTINUOUS
 62
    7
 10
1642.2012474177886
 20
3720.0001254873387
 11
1617.2013010297501
 21
3720.0001254873387
  0
LINE
  8
_0-0_
  6
CONTINUOUS
 62
    7
 10
1642.2012474177886
 20
3840.0001131153476
 11
1617.2013010297501
 21
3840.0001131153476
  0
LINE
  8
_0-0_
  6
CONTINUOUS
 62
    7
 10
1642.2012474177886
 20
3864.9998845280829
 11
1642.2012474177886
 21
3840.0001131153476
  0
LINE
  8
_0-0_
  6
CONTINUOUS
 62
    7
 10
1617.2013010297501
 20
3864.9998845280829
 11
1642.2012474177886
 21
3864.9998845280829
  0
LINE
  8
_0-0_
  6
CONTINUOUS
 62
    7
 10
1617.2013010297501
 20
3840.0001131153476
 11
1617.2013010297501
 21
3864.9998845280829
  0
LINE
  8
_0-0_
  6
CONTINUOUS
 62
    7
 10
1617.2013010297501
 20
3800.0000589142437
 11
1617.2013010297501
 21
3825.0001802775851
  0
LINE
  8
_0-0_
  6
CONTINUOUS
 62
    7
 10
1617.2013010297501
 20
3825.0001802775851
 11
1642.2012474177886
 21
3825.0001802775851
  0
LINE
  8
_0-0_
  6
CONTINUOUS
 62
    7
 10
1642.2012474177886
 20
3825.0001802775851
 11
1642.2012474177886
 21
3800.0000589142437
  0
LINE
  8
_0-0_
  6
CONTINUOUS
 62
    7
 10
1642.2012474177886
 20
3800.0000589142437
 11
1617.2013010297501
 21
3800.0000589142437
  0
LINE
  8
_0-0_
  6
CONTINUOUS
 62
    7
 10
1642.2012474177886
 20
3760.000179688443
 11
1617.2013010297501
 21
3760.000179688443
  0
LINE
  8
_0-0_
  6
CONTINUOUS
 62
    7
 10
1642.2012474177886
 20
3785.0001260764811
 11
1642.2012474177886
 21
3760.000179688443
  0
LINE
  8
_0-0_
  6
CONTINUOUS
 62
    7
 10
1617.2013010297501
 20
3785.0001260764811
 11
1642.2012474177886
 21
3785.0001260764811
  0
LINE
  8
_0-0_
  6
CONTINUOUS
 62
    7
 10
1617.2013010297501
 20
3760.000179688443
 11
1617.2013010297501
 21
3785.0001260764811
  0
LINE
  8
_0-0_
  6
CONTINUOUS
 62
    7
 10
1573.204242234985
 20
3732.0001067526096
 11
1603.2042391419873
 21
3732.0001067526096
  0
LINE
  8
_0-0_
  6
CONTINUOUS
 62
    7
 10
1440.0000058177818
 20
3840.0001131153476
 11
1440.0000058177818
 21
3864.9998845280829
  0
LINE
  8
_0-0_
  6
CONTINUOUS
 62
    7
 10
1440.0000058177818
 20
3864.9998845280829
 11
1465.0000178215589
 21
3864.9998845280829
  0
LINE
  8
_0-0_
  6
CONTINUOUS
 62
    7
 10
1465.0000178215589
 20
3864.9998845280829
 11
1465.0000178215589
 21
3840.0001131153476
  0
LINE
  8
_0-0_
  6
CONTINUOUS
 62
    7
 10
1465.0000178215589
 20
3840.0001131153476
 11
1440.0000058177818
 21
3840.0001131153476
  0
LINE
  8
_0-0_
  6
CONTINUOUS
 62
    7
 10
1543.2042453279826
 20
3852.0000943806185
 11
1603.2042391419873
 21
3852.0000943806185
  0
LINE
  8
_0-0_
  6
CONTINUOUS
 62
    7
 10
1573.204242234985
 20
3812.0002151548174
 11
1603.2042391419873
 21
3812.0002151548174
  0
LINE
  8
_0-0_
  6
CONTINUOUS
 62
    7
 10
1573.204242234985
 20
3772.000160953713
 11
1603.2042391419873
 21
3772.000160953713
  0
TEXT
  8
_0-0_
 62
    7
 10
1475.0000064069241
 20
3840.0001131153476
 40
25
 41
1.2
 50
0
  1
屋根
  0
TEXT
  8
_0-0_
 62
    7
 10
1656.1019823081706
 20
3840.0001131153476
 40
25
 41
1.2
 50
0
  1
75mm厚
  0
TEXT
  8
_0-0_
 62
    7
 10
2105.0000735691619
 20
3840.0001131153476
 40
25
 41
1.2
 50
0
  1
床
  0
TEXT
  8
_0-0_
 62
    7
 10
2326.1020029281558
 20
3840.0001131153476
 40
25
 41
1.2
 50
0
  1
100mm厚
  0
TEXT
  8
_0-0_
 62
    7
 10
1656.1019924708776
 20
3800.0000589142437
 40
25
 41
1.2
 50
0
  1
100mm厚
  0
LINE
  8
_0-0_
  6
CONTINUOUS
 62
    7
 10
2287.2013114870288
 20
3800.0000589142437
 11
2287.2013114870288
 21
3825.0001802775851
  0
LINE
  8
_0-0_
  6
CONTINUOUS
 62
    7
 10
2287.2013114870288
 20
3825.0001802775851
 11
2312.2012578750673
 21
3825.0001802775851
  0
LINE
  8
_0-0_
  6
CONTINUOUS
 62
    7
 10
2312.2012578750673
 20
3825.0001802775851
 11
2312.2012578750673
 21
3800.0000589142437
  0
LINE
  8
_0-0_
  6
CONTINUOUS
 62
    7
 10
2312.2012578750673
 20
3800.0000589142437
 11
2287.2013114870288
 21
3800.0000589142437
  0
LINE
  8
_0-0_
  6
CONTINUOUS
 62
    7
 10
2312.2012578750673
 20
3840.0001131153476
 11
2287.2013114870288
 21
3840.0001131153476
  0
LINE
  8
_0-0_
  6
CONTINUOUS
 62
    7
 10
2312.2012578750673
 20
3864.9998845280829
 11
2312.2012578750673
 21
3840.0001131153476
  0
LINE
  8
_0-0_
  6
CONTINUOUS
 62
    7
 10
2287.2013114870288
 20
3864.9998845280829
 11
2312.2012578750673
 21
3864.9998845280829
  0
LINE
  8
_0-0_
  6
CONTINUOUS
 62
    7
 10
2287.2013114870288
 20
3840.0001131153476
 11
2287.2013114870288
 21
3864.9998845280829
  0
LINE
  8
_0-0_
  6
CONTINUOUS
 62
    7
 10
2243.2042089484376
 20
3772.000160953713
 11
2273.2042495992659
 21
3772.000160953713
  0
LINE
  8
_0-0_
  6
CONTINUOUS
 62
    7
 10
2243.2042089484376
 20
3812.0002151548174
 11
2273.2042495992659
 21
3812.0002151548174
  0
LINE
  8
_0-0_
  6
CONTINUOUS
 62
    7
 10
2153.2042619712565
 20
3852.0000943806185
 11
2273.2042495992659
 21
3852.0000943806185
  0
LINE
  8
_0-0_
  6
CONTINUOUS
 62
    7
 10
2095.000039693472
 20
3840.0001131153476
 11
2070.000005817782
 21
3840.0001131153476
  0
LINE
  8
_0-0_
  6
CONTINUOUS
 62
    7
 10
2095.000039693472
 20
3864.9998845280829
 11
2095.000039693472
 21
3840.0001131153476
  0
LINE
  8
_0-0_
  6
CONTINUOUS
 62
    7
 10
2070.000005817782
 20
3864.9998845280829
 11
2095.000039693472
 21
3864.9998845280829
  0
LINE
  8
_0-0_
  6
CONTINUOUS
 62
    7
 10
2070.000005817782
 20
3840.0001131153476
 11
2070.000005817782
 21
3864.9998845280829
  0
LINE
  8
_0-0_
  6
CONTINUOUS
 62
    7
 10
2312.2012578750673
 20
3760.000179688443
 11
2287.2013114870288
 21
3760.000179688443
  0
LINE
  8
_0-0_
  6
CONTINUOUS
 62
    7
 10
2312.2012578750673
 20
3785.0001260764811
 11
2312.2012578750673
 21
3760.000179688443
  0
LINE
  8
_0-0_
  6
CONTINUOUS
 62
    7
 10
2287.2013114870288
 20
3785.0001260764811
 11
2312.2012578750673
 21
3785.0001260764811
  0
LINE
  8
_0-0_
  6
CONTINUOUS
 62
    7
 10
2287.2013114870288
 20
3760.000179688443
 11
2287.2013114870288
 21
3785.0001260764811
  0
TEXT
  8
_0-0_
 62
    7
 10
2326.1020029281558
 20
3800.0000589142437
 40
25
 41
1.2
 50
0
  1
125mm厚
  0
TEXT
  8
_0-0_
 62
    7
 10
1656.1019924708776
 20
3760.000179688443
 40
25
 41
1.2
 50
0
  1
125mm厚
  0
TEXT
  8
_0-0_
 62
    7
 10
2326.1020029281558
 20
3760.000179688443
 40
25
 41
1.2
 50
0
  1
150mm厚
  0
TEXT
  8
_0-0_
 62
    7
 10
2326.1020029281558
 20
3720.0003004626424
 40
25
 41
1.2
 50
0
  1
175mm厚
  0
LINE
  8
_0-0_
  6
CONTINUOUS
 62
    7
 10
1642.2012474177886
 20
3680.0001254873387
 11
1617.2013010297501
 21
3680.0001254873387
  0
LINE
  8
_0-0_
  6
CONTINUOUS
 62
    7
 10
1642.2012474177886
 20
3705.00024685068
 11
1642.2012474177886
 21
3680.0001254873387
  0
LINE
  8
_0-0_
  6
CONTINUOUS
 62
    7
 10
1617.2013010297501
 20
3705.00024685068
 11
1642.2012474177886
 21
3705.00024685068
  0
LINE
  8
_0-0_
  6
CONTINUOUS
 62
    7
 10
1617.2013010297501
 20
3680.0001254873387
 11
1617.2013010297501
 21
3705.00024685068
  0
LINE
  8
_0-0_
  6
CONTINUOUS
 62
    7
 10
1573.204242234985
 20
3692.0002817279124
 11
1603.2042391419873
 21
3692.0002817279124
  0
LINE
  8
_0-0_
  6
CONTINUOUS
 62
    7
 10
1573.204242234985
 20
3852.0000943806185
 11
1573.204242234985
 21
3692.0002817279124
  0
TEXT
  8
_0-0_
 62
    7
 10
1656.1019924708776
 20
3720.0001254873387
 40
25
 41
1.2
 50
0
  1
150mm厚
  0
LINE
  8
_0-0_
  6
CONTINUOUS
 62
    7
 10
2243.2042089484376
 20
3732.0002817279124
 11
2273.2042495992659
 21
3732.0002817279124
  0
LINE
  8
_0-0_
  6
CONTINUOUS
 62
    7
 10
2312.2012578750673
 20
3720.0003004626424
 11
2287.2013114870288
 21
3720.0003004626424
  0
LINE
  8
_0-0_
  6
CONTINUOUS
 62
    7
 10
2312.2012578750673
 20
3745.00024685068
 11
2312.2012578750673
 21
3720.0003004626424
  0
LINE
  8
_0-0_
  6
CONTINUOUS
 62
    7
 10
2287.2013114870288
 20
3745.00024685068
 11
2312.2012578750673
 21
3745.00024685068
  0
LINE
  8
_0-0_
  6
CONTINUOUS
 62
    7
 10
2287.2013114870288
 20
3720.0003004626424
 11
2287.2013114870288
 21
3745.00024685068
  0
TEXT
  8
_0-0_
 62
    7
 10
1656.1019924708776
 20
3680.0001254873387
 40
25
 41
1.2
 50
0
  1
175mm厚
  0
LINE
  8
_0-0_
  6
CONTINUOUS
 62
    7
 10
2243.2042089484376
 20
3852.0000943806185
 11
2243.2042089484376
 21
3732.0002817279124
  0
LINE
  8
_1-0_
  6
CONTINUOUS
 62
    7
 10
3058.7061434457287
 20
4179.7622864595369
 11
3058.7061434457287
 21
4079.7623609271409
  0
LINE
  8
_1-0_
  6
DASHED2
 62
    7
 10
3052.3062467577461
 20
4144.7624665014655
 11
3058.7061434457287
 21
4144.7624665014655
  0
LINE
  8
_1-0_
  6
DASHED2
 62
    7
 10
3052.3062467577461
 20
4114.7623208654559
 11
3058.7061434457287
 21
4114.7623208654559
  0
LINE
  8
_1-0_
  6
CONTINUOUS
 62
    7
 10
3052.3062467577461
 20
4179.7622864595369
 11
3052.3062467577461
 21
4079.7623609271409
  0
LINE
  8
_1-0_
  6
CONTINUOUS
 62
    7
 10
3052.3062467577461
 20
4179.7622864595369
 11
3058.7061434457287
 21
4179.7622864595369
  0
LINE
  8
_1-0_
  6
CONTINUOUS
 62
    7
 10
3052.3062467577461
 20
4079.7623609271409
 11
3058.7061434457287
 21
4079.7623609271409
  0
LINE
  8
_1-0_
  6
CONTINUOUS
 62
    4
 10
2805.1132467596312
 20
4129.7623236933396
 11
2765.1132625486484
 21
4129.7623236933396
  0
LINE
  8
_1-0_
  6
CONTINUOUS
 62
    4
 10
2805.1132467596312
 20
4079.7623609271409
 11
2765.1132625486484
 21
4079.7623609271409
  0
LINE
  8
_1-0_
  6
CONTINUOUS
 62
    4
 10
2725.1132083475441
 20
4179.7622864595369
 11
2725.1132083475441
 21
4079.7623609271409
  0
LINE
  8
_1-0_
  6
CONTINUOUS
 62
    4
 10
2805.1132467596312
 20
4179.7622864595369
 11
2725.1132083475441
 21
4179.7622864595369
  0
LINE
  8
_1-0_
  6
CONTINUOUS
 62
    4
 10
2805.1132467596312
 20
4079.7623609271409
 11
2725.1132083475441
 21
4079.7623609271409
  0
LINE
  8
_1-0_
  6
CONTINUOUS
 62
    4
 10
3052.3062467577461
 20
4220.0729568187917
 11
3058.7061434457287
 21
4220.0729568187917
  0
LINE
  8
_1-0_
  6
CONTINUOUS
 62
    4
 10
3052.3062467577461
 20
4189.4914732355992
 11
3052.3062467577461
 21
4220.0729568187917
  0
LINE
  8
_1-0_
  6
CONTINUOUS
 62
    4
 10
3058.7061434457287
 20
4189.4914732355992
 11
3058.7061434457287
 21
4220.0729568187917
  0
LINE
  8
_1-0_
  6
CENTER1
 62
    3
 10
2875.113236626381
 20
4129.7623236933396
 11
2850.7997883427179
 21
4129.7623236933396
  0
LINE
  8
_1-0_
  6
CENTER1
 62
    3
 10
2875.113236626381
 20
4129.7623236933396
 11
2875.113236626381
 21
4153.7602565103643
  0
LINE
  8
_1-0_
  6
CENTER1
 62
    3
 10
2875.113236626381
 20
4129.7623236933396
 11
2898.7998533840432
 21
4129.7623236933396
  0
LINE
  8
_1-0_
  6
CENTER1
 62
    3
 10
2875.113236626381
 20
4129.7623236933396
 11
2875.113236626381
 21
4105.7643908763148
  0
LINE
  8
_1-0_
  6
CONTINUOUS
 62
    4
 10
2765.1132625486484
 20
4129.7623236933396
 11
2765.1132625486484
 21
4079.7623609271409
  0
LINE
  8
_1-0_
  6
CONTINUOUS
 62
    4
 10
2887.098309995823
 20
4144.0055583351032
 11
2917.9451611237719
 21
4197.433847210963
  0
LINE
  8
_1-0_
  6
CONTINUOUS
 62
    4
 10
2887.098309995823
 20
4144.0055583351032
 11
2890.2041566217813
 21
4155.5966573119749
  0
CIRCLE
  8
_1-0_
  6
CONTINUOUS
 62
    7
 10
2875.113236626381
 20
4129.7623236933396
 40
49.999997761258754
  0
CIRCLE
  8
_1-0_
  6
CONTINUOUS
 62
    7
 10
2875.113236626381
 20
4129.7623236933396
 40
14.999998453501108
  0
TEXT
  8
_1-0_
 62
    7
 10
2891.6806834786644
 20
4185.2479318862843
 40
30
 41
1
 50
0
  1
φ１５
  0
POINT
  8
_1-0_
 62
    4
 10
2765.1132625486484
 20
4129.7623236933396
  0
POINT
  8
_1-0_
 62
    4
 10
2765.1132625486484
 20
4079.7623609271409
  0
POINT
  8
_1-0_
 62
    4
 10
2725.1132083475441
 20
4179.7622864595369
  0
POINT
  8
_1-0_
 62
    4
 10
2725.1132083475441
 20
4079.7623609271409
  0
POINT
  8
_1-0_
 62
    4
 10
3052.3062467577461
 20
4220.0729568187917
  0
POINT
  8
_1-0_
 62
    4
 10
3058.7061434457287
 20
4220.0729568187917
  0
TEXT
  8
_1-0_
 62
    7
 10
3030.0983556683832
 20
4222.9530923697057
 40
30
 41
1
 50
0
  1
3.2
  0
TEXT
  8
_1-0_
 62
    7
 10
2721.0526270375567
 20
4117.0626097263621
 40
30
 41
1
 50
90.000002499998246
  1
50
  0
TEXT
  8
_1-0_
 62
    7
 10
2763.1177130061519
 20
4088.0522056100908
 40
30
 41
1
 50
90.000002499999752
  1
25
  0
LINE
  8
_1-0_
  6
CONTINUOUS
 62
    7
 10
2790.0813363956763
 20
3766.9154928397165
 11
2790.0813363956763
 21
3826.9155041512513
  0
LINE
  8
_1-0_
  6
CONTINUOUS
 62
    7
 10
2812.0813312112227
 20
3780.915476815042
 11
2812.0813312112227
 21
3826.9155041512513
  0
LINE
  8
_1-0_
  6
CONTINUOUS
 62
    7
 10
2920.0814075640824
 20
3769.9154094171472
 11
2923.5814035579137
 21
3745.9153768964852
  0
LINE
  8
_1-0_
  6
CONTINUOUS
 62
    7
 10
2927.0814695418667
 20
3769.9154094171472
 11
2930.5814655356976
 21
3745.9153768964852
  0
LINE
  8
_1-0_
  6
CONTINUOUS
 62
    7
 10
2934.0815315196505
 20
3769.9154094171472
 11
2937.581597503603
 21
3745.9153768964852
  0
LINE
  8
_1-0_
  6
CONTINUOUS
 62
    7
 10
2941.0815934974344
 20
3769.9154094171472
 11
2944.5816594813869
 21
3745.9153768964852
  0
LINE
  8
_1-0_
  6
CONTINUOUS
 62
    7
 10
2948.0816554752187
 20
3769.9154094171472
 11
2951.5817214591716
 21
3745.9153768964852
  0
LINE
  8
_1-0_
  6
CONTINUOUS
 62
    7
 10
2955.081717453003
 20
3769.9154094171472
 11
2958.5817834369554
 21
3745.9153768964852
  0
LINE
  8
_1-0_
  6
CONTINUOUS
 62
    7
 10
2962.0818494209084
 20
3769.9154094171472
 11
2965.5818454147397
 21
3745.9153768964852
  0
LINE
  8
_1-0_
  6
CONTINUOUS
 62
    7
 10
2969.0818414085707
 20
3769.9154094171472
 11
2972.5819073925236
 21
3745.9153768964852
  0
LINE
  8
_1-0_
  6
CONTINUOUS
 62
    7
 10
2976.0819733764765
 20
3769.9154094171472
 11
2979.5820393604295
 21
3745.9153768964852
  0
LINE
  8
_1-0_
  6
CONTINUOUS
 62
    7
 10
2983.0820353542604
 20
3769.9154094171472
 11
2986.5820313480926
 21
3745.9153768964852
  0
LINE
  8
_1-0_
  6
CONTINUOUS
 62
    7
 10
2990.0820973320447
 20
3769.9154094171472
 11
2993.5821633159976
 21
3745.9153768964852
  0
LINE
  8
_1-0_
  6
CONTINUOUS
 62
    7
 10
2923.8731223833238
 20
3767.9153717120316
 11
2926.7897507164562
 21
3747.9155545818435
  0
LINE
  8
_1-0_
  6
CONTINUOUS
 62
    7
 10
2930.8731143709865
 20
3767.9153717120316
 11
2933.7898826843616
 21
3747.9155545818435
  0
LINE
  8
_1-0_
  6
CONTINUOUS
 62
    7
 10
2937.8732463388915
 20
3767.9153717120316
 11
2940.7899446621459
 21
3747.9155545818435
  0
LINE
  8
_1-0_
  6
CONTINUOUS
 62
    7
 10
2944.8732383265551
 20
3767.9153717120316
 11
2947.7900066399297
 21
3747.9155545818435
  0
LINE
  8
_1-0_
  6
CONTINUOUS
 62
    7
 10
2951.8733702944605
 20
3767.9153717120316
 11
2954.7900686177136
 21
3747.9155545818435
  0
LINE
  8
_1-0_
  6
CONTINUOUS
 62
    7
 10
2958.8734322722444
 20
3767.9153717120316
 11
2961.7901305954979
 21
3747.9155545818435
  0
LINE
  8
_1-0_
  6
CONTINUOUS
 62
    7
 10
2965.8734942500287
 20
3767.9153717120316
 11
2968.7901925732822
 21
3747.9155545818435
  0
LINE
  8
_1-0_
  6
CONTINUOUS
 62
    7
 10
2972.8735562278125
 20
3767.9153717120316
 11
2975.7903245411876
 21
3747.9155545818435
  0
LINE
  8
_1-0_
  6
CONTINUOUS
 62
    7
 10
2979.8736182055973
 20
3767.9153717120316
 11
2982.7903865189719
 21
3747.9155545818435
  0
LINE
  8
_1-0_
  6
CONTINUOUS
 62
    7
 10
2986.8737501735022
 20
3767.9153717120316
 11
2989.7904484967557
 21
3747.9155545818435
  0
LINE
  8
_1-0_
  6
CONTINUOUS
 62
    7
 10
2993.8738121512865
 20
3767.9153717120316
 11
2996.7905104745396
 21
3747.9155545818435
  0
LINE
  8
_1-0_
  6
CONTINUOUS
 62
    7
 10
2824.0813474715537
 20
3768.9153905645894
 11
2920.0814075640824
 21
3768.9153905645894
  0
LINE
  8
_1-0_
  6
CONTINUOUS
 62
    7
 10
2920.0814075640824
 20
3746.915395749043
 11
2920.0814075640824
 21
3768.9153905645894
  0
LINE
  8
_1-0_
  6
CONTINUOUS
 62
    7
 10
2810.0813634962278
 20
3746.915395749043
 11
2920.0814075640824
 21
3746.915395749043
  0
LINE
  8
_1-0_
  6
CONTINUOUS
 62
    7
 10
3000.0813759860475
 20
3751.2063501032299
 11
3000.0813759860475
 21
3764.6244362104026
  0
LINE
  8
_1-0_
  6
CONTINUOUS
 62
    7
 10
2996.7905104745396
 20
3747.9155545818435
 11
3000.0813759860475
 21
3751.2063501032299
  0
LINE
  8
_1-0_
  6
CONTINUOUS
 62
    7
 10
2996.7905104745396
 20
3767.9153717120316
 11
3000.0813759860475
 21
3764.6244362104026
  0
LINE
  8
_1-0_
  6
CONTINUOUS
 62
    7
 10
2996.7905104745396
 20
3747.9155545818435
 11
2996.7905104745396
 21
3767.9153717120316
  0
LINE
  8
_1-0_
  6
CONTINUOUS
 62
    7
 10
2993.8738121512865
 20
3767.9153717120316
 11
2996.7905104745396
 21
3767.9153717120316
  0
LINE
  8
_1-0_
  6
CONTINUOUS
 62
    7
 10
3058.6600279150412
 20
3779.8153720890828
 11
3058.6600279150412
 21
3736.0152742443074
  0
LINE
  8
_1-0_
  6
CONTINUOUS
 62
    7
 10
3058.6600279150412
 20
3779.8153720890828
 11
3076.4082628443066
 21
3779.8153720890828
  0
LINE
  8
_1-0_
  6
CONTINUOUS
 62
    7
 10
3078.659985025472
 20
3775.9155225324953
 11
3076.4082628443066
 21
3779.8153720890828
  0
LINE
  8
_1-0_
  6
CONTINUOUS
 62
    7
 10
3076.4082628443066
 20
3767.9153717120316
 11
3078.659985025472
 21
3771.8153612488622
  0
LINE
  8
_1-0_
  6
CONTINUOUS
 62
    7
 10
3058.6600279150412
 20
3767.9153717120316
 11
3076.4082628443066
 21
3767.9153717120316
  0
LINE
  8
_1-0_
  6
CONTINUOUS
 62
    7
 10
3076.4082628443066
 20
3767.9153717120316
 11
3078.659985025472
 21
3764.015382175201
  0
LINE
  8
_1-0_
  6
CONTINUOUS
 62
    7
 10
3076.4082628443066
 20
3747.9155545818435
 11
3078.659985025472
 21
3751.8154041384314
  0
LINE
  8
_1-0_
  6
CONTINUOUS
 62
    7
 10
3076.4082628443066
 20
3747.9155545818435
 11
3078.659985025472
 21
3744.0154250647711
  0
LINE
  8
_1-0_
  6
CONTINUOUS
 62
    7
 10
3058.6600279150412
 20
3747.9155545818435
 11
3076.4082628443066
 21
3747.9155545818435
  0
LINE
  8
_1-0_
  6
CONTINUOUS
 62
    7
 10
3078.659985025472
 20
3739.9154037613798
 11
3076.4082628443066
 21
3736.0152742443074
  0
LINE
  8
_1-0_
  6
CONTINUOUS
 62
    7
 10
3058.6600279150412
 20
3736.0152742443074
 11
3076.4082628443066
 21
3736.0152742443074
  0
LINE
  8
_1-0_
  6
CONTINUOUS
 62
    7
 10
3078.659985025472
 20
3775.9155225324953
 11
3078.659985025472
 21
3739.9154037613798
  0
LINE
  8
_1-0_
  6
CONTINUOUS
 62
    4
 10
2730.0813250841411
 20
3826.9155041512513
 11
2730.0813250841411
 21
3746.915395749043
  0
LINE
  8
_1-0_
  6
CONTINUOUS
 62
    4
 10
2770.0813792852455
 20
3826.9155041512513
 11
2730.0813250841411
 21
3826.9155041512513
  0
LINE
  8
_1-0_
  6
CONTINUOUS
 62
    4
 10
2770.0813792852455
 20
3746.915395749043
 11
2730.0813250841411
 21
3746.915395749043
  0
LINE
  8
_1-0_
  6
CONTINUOUS
 62
    4
 10
2920.0814075640824
 20
3686.9153844375087
 11
3000.0813759860475
 21
3686.9153844375087
  0
LINE
  8
_1-0_
  6
CONTINUOUS
 62
    4
 10
2920.0814075640824
 20
3726.9154386386122
 11
2920.0814075640824
 21
3686.9153844375087
  0
LINE
  8
_1-0_
  6
CONTINUOUS
 62
    4
 10
3000.0813759860475
 20
3726.9154386386122
 11
3000.0813759860475
 21
3686.9153844375087
  0
LINE
  8
_1-0_
  6
CONTINUOUS
 62
    4
 10
3000.0813759860475
 20
3646.9153302364043
 11
2790.0813363956763
 21
3646.9153302364043
  0
LINE
  8
_1-0_
  6
CONTINUOUS
 62
    4
 10
3000.0813759860475
 20
3726.9154386386122
 11
3000.0813759860475
 21
3646.9153302364043
  0
LINE
  8
_1-0_
  6
CONTINUOUS
 62
    4
 10
2790.0813363956763
 20
3726.9154386386122
 11
2790.0813363956763
 21
3646.9153302364043
  0
LINE
  8
_1-0_
  6
CONTINUOUS
 62
    7
 10
2790.0813363956763
 20
3826.9155041512513
 11
2812.0813312112227
 21
3826.9155041512513
  0
LINE
  8
_1-0_
  6
CONTINUOUS
 62
    4
 10
2961.7401926439788
 20
3773.1957064203448
 11
2992.655074169792
 21
3826.7418586604063
  0
LINE
  8
_1-0_
  6
CONTINUOUS
 62
    4
 10
2961.7401926439788
 20
3773.1957064203448
 11
2964.8460042748766
 21
3784.7868228947473
  0
ARC
  8
_1-0_
  6
CONTINUOUS
 62
    7
 10
2810.0813634962278
 20
3766.9154928397165
 40
20.000000854256538
 50
180
 51
270
  0
ARC
  8
_1-0_
  6
CONTINUOUS
 62
    7
 10
2824.0813474715537
 20
3780.915476815042
 40
11.999999856396533
 50
180
 51
270
  0
ARC
  8
_1-0_
  6
CONTINUOUS
 62
    7
 10
2923.5814035579137
 20
3771.9566013135641
 40
4.0517007798301661
 50
210.24903869628906
 51
329.75096130371094
  0
ARC
  8
_1-0_
  6
CONTINUOUS
 62
    7
 10
2930.5814655356976
 20
3771.9566013135641
 40
4.0517007798301661
 50
210.24903869628906
 51
329.75096130371094
  0
ARC
  8
_1-0_
  6
CONTINUOUS
 62
    7
 10
2937.581597503603
 20
3771.9566013135641
 40
4.0517007798301661
 50
210.24903869628906
 51
329.75096130371094
  0
ARC
  8
_1-0_
  6
CONTINUOUS
 62
    7
 10
2944.5816594813869
 20
3771.9566013135641
 40
4.0517007798301661
 50
210.24903869628906
 51
329.75096130371094
  0
ARC
  8
_1-0_
  6
CONTINUOUS
 62
    7
 10
2951.5817214591716
 20
3771.9566013135641
 40
4.0517007798301661
 50
210.24903869628906
 51
329.75096130371094
  0
ARC
  8
_1-0_
  6
CONTINUOUS
 62
    7
 10
2958.5817834369554
 20
3771.9566013135641
 40
4.0517007798301661
 50
210.24903869628906
 51
329.75096130371094
  0
ARC
  8
_1-0_
  6
CONTINUOUS
 62
    7
 10
2965.5818454147397
 20
3771.9566013135641
 40
4.0517007798301661
 50
210.24903869628906
 51
329.75096130371094
  0
ARC
  8
_1-0_
  6
CONTINUOUS
 62
    7
 10
2972.5819073925236
 20
3771.9566013135641
 40
4.0517007798301661
 50
210.24903869628906
 51
329.75096130371094
  0
ARC
  8
_1-0_
  6
CONTINUOUS
 62
    7
 10
2979.5820393604295
 20
3771.9566013135641
 40
4.0517007798301661
 50
210.24903869628906
 51
329.75096130371094
  0
ARC
  8
_1-0_
  6
CONTINUOUS
 62
    7
 10
2986.5820313480926
 20
3771.9566013135641
 40
4.0517007798301661
 50
210.24903869628906
 51
329.75096130371094
  0
ARC
  8
_1-0_
  6
CONTINUOUS
 62
    7
 10
2927.0814695418667
 20
3743.874324980311
 40
4.0517007798301661
 50
30.249038696289063
 51
149.75096130371094
  0
ARC
  8
_1-0_
  6
CONTINUOUS
 62
    7
 10
2934.0815315196505
 20
3743.874324980311
 40
4.0517007798301661
 50
30.249038696289063
 51
149.75096130371094
  0
ARC
  8
_1-0_
  6
CONTINUOUS
 62
    7
 10
2941.0815934974344
 20
3743.874324980311
 40
4.0517007798301661
 50
30.249038696289063
 51
149.75096130371094
  0
ARC
  8
_1-0_
  6
CONTINUOUS
 62
    7
 10
2948.0816554752187
 20
3743.874324980311
 40
4.0517007798301661
 50
30.249038696289063
 51
149.75096130371094
  0
ARC
  8
_1-0_
  6
CONTINUOUS
 62
    7
 10
2955.081717453003
 20
3743.874324980311
 40
4.0517007798301661
 50
30.249038696289063
 51
149.75096130371094
  0
ARC
  8
_1-0_
  6
CONTINUOUS
 62
    7
 10
2962.0818494209084
 20
3743.874324980311
 40
4.0517007798301661
 50
30.249038696289063
 51
149.75096130371094
  0
ARC
  8
_1-0_
  6
CONTINUOUS
 62
    7
 10
2969.0818414085707
 20
3743.874324980311
 40
4.0517007798301661
 50
30.249038696289063
 51
149.75096130371094
  0
ARC
  8
_1-0_
  6
CONTINUOUS
 62
    7
 10
2976.0819733764765
 20
3743.874324980311
 40
4.0517007798301661
 50
30.249038696289063
 51
149.75096130371094
  0
ARC
  8
_1-0_
  6
CONTINUOUS
 62
    7
 10
2983.0820353542604
 20
3743.874324980311
 40
4.0517007798301661
 50
30.249038696289063
 51
149.75096130371094
  0
ARC
  8
_1-0_
  6
CONTINUOUS
 62
    7
 10
2990.0820973320447
 20
3743.874324980311
 40
4.0517007798301661
 50
30.249038696289063
 51
149.75096130371094
  0
ARC
  8
_1-0_
  6
CONTINUOUS
 62
    7
 10
2919.9018129129299
 20
3743.5387923389926
 40
4.3803596257242914
 50
32.85791015625
 51
87.650604248046875
  0
ARC
  8
_1-0_
  6
CONTINUOUS
 62
    7
 10
2918.2441668810161
 20
3771.0976825454654
 40
2.1847572188579898
 50
263.82643127441406
 51
327.23974609375
  0
ARC
  8
_1-0_
  6
CONTINUOUS
 62
    7
 10
2997.0822292999501
 20
3743.874324980311
 40
4.0517007798301661
 50
94.127944946289062
 51
149.75096130371091
  0
ARC
  8
_1-0_
  6
CONTINUOUS
 62
    7
 10
2993.5821633159976
 20
3771.9566013135641
 40
4.0517007798301661
 50
210.24903869628906
 51
274.12794494628906
  0
POINT
  8
_1-0_
 62
    4
 10
2730.0813250841411
 20
3826.9155041512513
  0
POINT
  8
_1-0_
 62
    4
 10
2730.0813250841411
 20
3746.915395749043
  0
POINT
  8
_1-0_
 62
    4
 10
2920.0814075640824
 20
3686.9153844375087
  0
POINT
  8
_1-0_
 62
    4
 10
3000.0813759860475
 20
3686.9153844375087
  0
POINT
  8
_1-0_
 62
    4
 10
3000.0813759860475
 20
3646.9153302364043
  0
POINT
  8
_1-0_
 62
    4
 10
2790.0813363956763
 20
3646.9153302364043
  0
TEXT
  8
_1-0_
 62
    7
 10
2728.0233319601916
 20
3769.5432174119242
 40
30
 41
1
 50
90.000002500001273
  1
40
  0
TEXT
  8
_1-0_
 62
    7
 10
2945.6134354098913
 20
3687.6911408791211
 40
30
 41
1
 50
0
  1
40
  0
TEXT
  8
_1-0_
 62
    7
 10
2876.0391703570085
 20
3648.8114045260404
 40
30
 41
1
 50
0
  1
Ｌ
  0
TEXT
  8
_1-0_
 62
    7
 10
2967.4406558186383
 20
3824.7933690715649
 40
30
 41
1
 50
0
  1
Ｍ１２
  0
CIRCLE
  8
ADD_LINE
  6
DOT
 62
    9
 10
924.99475655430729
 20
769.98014981273423
 40
100
  0
LINE
  8
ADD_LINE
  6
DOT
 62
    9
 10
1124.9947565543073
 20
769.98014981273423
 11
724.99475655430729
 21
769.98014981273423
  0
LINE
  8
ADD_LINE
  6
DOT
 62
    9
 10
924.99475655430729
 20
969.98014981273423
 11
924.99475655430729
 21
569.98014981273423
  0
TEXT
  8
_0-0_
 62
    7
 10
3226.6252207422222
 20
4483.5933082525762
 40
25
 41
1.3999999999999999
 50
0
  1
SS-F02-2021.01.01
  0
TEXT
  8
_0-0_
 62
    7
 10
1410.0000058177818
 20
4314.9998845280825
 40
25
 41
1.2
 50
0
  1
JIS A 5416-2016 軽量気泡コンクリ-トパネル（ＡＬＣパネル）に
  0
TEXT
  8
_0-0_
 62
    7
 10
3605.8787165912331
 20
1076.5497629378488
 40
30
 41
1
 50
0
  1
当標準図は2021年1月時点の建築基準法等の法令・基準に基づいて作成していますが、それ以降に改定される
  0
TEXT
  8
_0-0_
 62
    7
 10
2802.5000599452424
 20
4401.2850448131412
 40
40
 41
1
 50
0
  1
敷設筋構法　主要金具図
  0
TEXT
  8
_1-0_
 62
    7
 10
2485.8227069859977
 20
2704.5648467310612
 40
30
 41
1
 50
0
  1
スラブプレート
  0
LINE
  8
_1-0_
  6
CONTINUOUS
 62
    7
 10
2848.9406576751117
 20
2377.1268961208125
 11
2848.9406576751117
 21
2563.1269731806428
  0
LINE
  8
_1-0_
  6
CONTINUOUS
 62
    7
 10
2848.9406576751117
 20
2563.1269731806428
 11
2948.9405482124471
 21
2563.1269731806428
  0
LINE
  8
_1-0_
  6
CONTINUOUS
 62
    7
 10
2948.9405482124471
 20
2563.1269731806428
 11
2948.9405482124471
 21
2377.1268961208125
  0
LINE
  8
_1-0_
  6
CONTINUOUS
 62
    7
 10
2948.9405482124471
 20
2377.1268961208125
 11
2848.9406576751117
 21
2377.1268961208125
  0
LINE
  8
_1-0_
  6
CONTINUOUS
 62
    7
 10
2873.9405690680896
 20
2535.1269352398704
 11
2873.9405690680896
 21
2537.1269729449859
  0
LINE
  8
_1-0_
  6
CONTINUOUS
 62
    7
 10
2913.9405882741321
 20
2525.1269566846549
 11
2883.9406176134257
 21
2525.1269566846549
  0
LINE
  8
_1-0_
  6
CONTINUOUS
 62
    7
 10
2913.9405882741321
 20
2547.1269165051408
 11
2883.9406176134257
 21
2547.1269165051408
  0
LINE
  8
_1-0_
  6
CONTINUOUS
 62
    7
 10
2923.9406368194695
 20
2537.1269729449859
 11
2923.9406368194695
 21
2535.1269352398704
  0
LINE
  8
_1-0_
  6
CONTINUOUS
 62
    7
 10
3036.9405274746332
 20
2377.1268961208125
 11
3036.9405274746332
 21
2563.1269731806428
  0
LINE
  8
_1-0_
  6
CONTINUOUS
 62
    7
 10
3036.9405274746332
 20
2563.1269731806428
 11
3048.9406137250858
 21
2563.1269731806428
  0
LINE
  8
_1-0_
  6
CONTINUOUS
 62
    7
 10
3048.9406137250858
 20
2377.1268961208125
 11
3036.9405274746332
 21
2377.1268961208125
  0
LINE
  8
_1-0_
  6
CONTINUOUS
 62
    7
 10
3048.9406137250858
 20
2563.1269731806428
 11
3048.9406137250858
 21
2377.1268961208125
  0
LINE
  8
_1-0_
  6
DASHED1
 62
    7
 10
3036.9405274746332
 20
2547.1269165051408
 11
3048.9406137250858
 21
2547.1269165051408
  0
LINE
  8
_1-0_
  6
DASHED1
 62
    7
 10
3036.9405274746332
 20
2525.1269566846549
 11
3048.9406137250858
 21
2525.1269566846549
  0
ARC
  8
_1-0_
  6
CONTINUOUS
 62
    7
 10
2883.9406176134257
 20
2537.1269729449859
 40
9.9999993335326192
 50
90
 51
180
  0
ARC
  8
_1-0_
  6
CONTINUOUS
 62
    7
 10
2883.9406176134257
 20
2535.1269352398704
 40
9.9999993335326192
 50
180
 51
270
  0
ARC
  8
_1-0_
  6
CONTINUOUS
 62
    7
 10
2913.9405882741321
 20
2535.1269352398704
 40
9.9999993335326192
 50
270
 51
0
  0
ARC
  8
_1-0_
  6
CONTINUOUS
 62
    7
 10
2913.9405882741321
 20
2537.1269729449859
 40
9.9999993335326192
 50
0
 51
90
  0
LINE
  8
_1-0_
  6
CONTINUOUS
 62
    4
 10
2848.9406576751117
 20
2671.4435534426825
 11
2948.9405482124471
 21
2671.4435534426825
  0
LINE
  8
_1-0_
  6
CONTINUOUS
 62
    4
 10
2848.9406576751117
 20
2591.4435229251048
 11
2848.9406576751117
 21
2671.4435534426825
  0
LINE
  8
_1-0_
  6
CONTINUOUS
 62
    4
 10
2948.9405482124471
 20
2591.4435229251048
 11
2948.9405482124471
 21
2671.4435534426825
  0
LINE
  8
_1-0_
  6
CONTINUOUS
 62
    4
 10
2848.9406576751117
 20
2591.4435229251048
 11
2848.9406576751117
 21
2631.443499241579
  0
LINE
  8
_1-0_
  6
CONTINUOUS
 62
    4
 10
2873.9405690680896
 20
2591.4435229251048
 11
2873.9405690680896
 21
2631.443499241579
  0
LINE
  8
_1-0_
  6
CONTINUOUS
 62
    4
 10
2873.9405690680896
 20
2631.443499241579
 11
2923.9406368194695
 21
2631.443499241579
  0
LINE
  8
_1-0_
  6
CONTINUOUS
 62
    4
 10
2923.9406368194695
 20
2591.4435229251048
 11
2923.9406368194695
 21
2631.443499241579
  0
LINE
  8
_1-0_
  6
CONTINUOUS
 62
    4
 10
3036.9405274746332
 20
2671.4435534426825
 11
3048.9406137250858
 21
2671.4435534426825
  0
LINE
  8
_1-0_
  6
CONTINUOUS
 62
    4
 10
3036.9405274746332
 20
2591.4435229251048
 11
3036.9405274746332
 21
2671.4435534426825
  0
LINE
  8
_1-0_
  6
CONTINUOUS
 62
    4
 10
3048.9406137250858
 20
2591.4435229251048
 11
3048.9406137250858
 21
2671.4435534426825
  0
POINT
  8
_1-0_
 62
    4
 10
2848.9406576751117
 20
2671.4435534426825
  0
POINT
  8
_1-0_
 62
    4
 10
2948.9405482124471
 20
2671.4435534426825
  0
POINT
  8
_1-0_
 62
    4
 10
2848.9406576751117
 20
2631.443499241579
  0
POINT
  8
_1-0_
 62
    4
 10
2873.9405690680896
 20
2631.443499241579
  0
POINT
  8
_1-0_
 62
    4
 10
2923.9406368194695
 20
2631.443499241579
  0
POINT
  8
_1-0_
 62
    4
 10
3036.9405274746332
 20
2671.4435534426825
  0
POINT
  8
_1-0_
 62
    4
 10
3048.9406137250858
 20
2671.4435534426825
  0
LINE
  8
_1-0_
  6
CONTINUOUS
 62
    4
 10
2814.9596748174363
 20
2525.1269566846549
 11
2754.9596635059015
 21
2525.1269566846549
  0
LINE
  8
_1-0_
  6
CONTINUOUS
 62
    4
 10
2814.9596748174363
 20
2547.1269165051408
 11
2754.9596635059015
 21
2547.1269165051408
  0
LINE
  8
_1-0_
  6
CONTINUOUS
 62
    4
 10
2814.9596748174363
 20
2563.1269731806428
 11
2754.9596635059015
 21
2563.1269731806428
  0
LINE
  8
_1-0_
  6
CONTINUOUS
 62
    4
 10
2714.9596093047976
 20
2377.1268961208125
 11
2714.9596093047976
 21
2563.1269731806428
  0
LINE
  8
_1-0_
  6
CONTINUOUS
 62
    4
 10
2814.9596748174363
 20
2377.1268961208125
 11
2714.9596093047976
 21
2377.1268961208125
  0
LINE
  8
_1-0_
  6
CONTINUOUS
 62
    4
 10
2814.9596748174363
 20
2563.1269731806428
 11
2714.9596093047976
 21
2563.1269731806428
  0
POINT
  8
_1-0_
 62
    4
 10
2754.9596635059015
 20
2525.1269566846549
  0
POINT
  8
_1-0_
 62
    4
 10
2754.9596635059015
 20
2547.1269165051408
  0
POINT
  8
_1-0_
 62
    4
 10
2754.9596635059015
 20
2563.1269731806428
  0
POINT
  8
_1-0_
 62
    4
 10
2714.9596093047976
 20
2377.1268961208125
  0
POINT
  8
_1-0_
 62
    4
 10
2714.9596093047976
 20
2563.1269731806428
  0
TEXT
  8
_1-0_
 62
    7
 10
2881.5900082869712
 20
2673.1216237240005
 40
30
 41
1
 50
0
  1
50
  0
TEXT
  8
_1-0_
 62
    7
 10
3034.9861947326417
 20
2674.2165149374987
 40
30
 41
1
 50
0
  1
6
  0
TEXT
  8
_1-0_
 62
    7
 10
2781.7208442316114
 20
2630.9683120043064
 40
30
 41
1
 50
0
  1
12.5
  0
TEXT
  8
_1-0_
 62
    7
 10
2882.4508358734784
 20
2632.0632032178046
 40
30
 41
1
 50
0
  1
25
  0
LINE
  8
_1-0_
  6
CONTINUOUS
 62
    4
 10
2776.7938337708683
 20
2631.443499241579
 11
2873.9405690680896
 21
2631.443499241579
  0
TEXT
  8
_1-0_
 62
    7
 10
2714.3850346014506
 20
2458.5229458782837
 40
30
 41
1
 50
90.000002500000249
  1
Ａ
  0
TEXT
  8
_1-0_
 62
    7
 10
2754.3485638941479
 20
2572.9390776888831
 40
30
 41
1
 50
90.000002500000249
  1
6
  0
LINE
  8
_1-0_
  6
CONTINUOUS
 62
    4
 10
2754.9596635059015
 20
2547.1269165051408
 11
2754.9596635059015
 21
2592.0996739251077
  0
TEXT
  8
_1-0_
 62
    7
 10
2750.516444646903
 20
2519.2894082274534
 40
30
 41
1
 50
90.000002500000249
  1
11
  0
LINE
  8
_1-0_
  6
CONTINUOUS
 62
    4
 10
2754.9596635059015
 20
2505.0558224519723
 11
2754.9596635059015
 21
2547.1269165051408
  0
LINE
  8
_1-0_
  6
CONTINUOUS
 62
    7
 10
2850.8377893696334
 20
2168.402178564741
 11
2841.4962778752283
 21
2152.2221422924199
  0
LINE
  8
_1-0_
  6
CONTINUOUS
 62
    7
 10
3083.2522352835299
 20
2016.368517322584
 11
3083.2522352835299
 21
2034.3682967476566
  0
LINE
  8
_1-0_
  6
CONTINUOUS
 62
    7
 10
3049.2524341780154
 20
2034.3682967476566
 11
3083.2522352835299
 21
2034.3682967476566
  0
LINE
  8
_1-0_
  6
CONTINUOUS
 62
    7
 10
3023.2523639522378
 20
2032.3683990227828
 11
3023.2523639522378
 21
2197.3682901492612
  0
LINE
  8
_1-0_
  6
CONTINUOUS
 62
    7
 10
3039.2525256129215
 20
2016.368517322584
 11
3083.2522352835299
 21
2016.368517322584
  0
LINE
  8
_1-0_
  6
CONTINUOUS
 62
    4
 10
2842.6983582078628
 20
2284.0665931362605
 11
2860.6982776131781
 21
2284.0665931362605
  0
LINE
  8
_1-0_
  6
CONTINUOUS
 62
    4
 10
2842.6983582078628
 20
2234.699761006977
 11
2842.6983582078628
 21
2284.0665931362605
  0
LINE
  8
_1-0_
  6
CONTINUOUS
 62
    4
 10
2860.6982776131781
 20
2234.699761006977
 11
2860.6982776131781
 21
2284.0665931362605
  0
LINE
  8
_1-0_
  6
CONTINUOUS
 62
    4
 10
2745.1615950129576
 20
2016.368517322584
 11
2745.1615950129576
 21
2206.3683198420399
  0
LINE
  8
_1-0_
  6
CONTINUOUS
 62
    4
 10
2815.0328030565902
 20
2016.368517322584
 11
2745.1615950129576
 21
2016.368517322584
  0
LINE
  8
_1-0_
  6
CONTINUOUS
 62
    4
 10
2815.0328030565902
 20
2206.3683198420399
 11
2745.1615950129576
 21
2206.3683198420399
  0
LINE
  8
_1-0_
  6
CONTINUOUS
 62
    4
 10
3083.2522352835299
 20
1966.3267004638726
 11
3023.2523639522378
 21
1966.3267004638726
  0
LINE
  8
_1-0_
  6
CONTINUOUS
 62
    4
 10
3083.2522352835299
 20
2001.2622694906281
 11
3083.2522352835299
 21
1966.3267004638726
  0
LINE
  8
_1-0_
  6
CONTINUOUS
 62
    4
 10
3023.2523639522378
 20
2001.2622694906281
 11
3023.2523639522378
 21
1966.3267004638726
  0
LINE
  8
_1-0_
  6
CONTINUOUS
 62
    7
 10
2849.9329570819882
 20
2154.3108574811718
 11
2861.2246033250503
 21
2173.8685470153628
  0
LINE
  8
_1-0_
  6
CONTINUOUS
 62
    7
 10
2842.6983582078628
 20
2127.3108383929566
 11
2842.6983582078628
 21
2025.3684070351201
  0
LINE
  8
_1-0_
  6
CONTINUOUS
 62
    7
 10
2865.5213668593019
 20
2145.3106878081503
 11
2876.8130830924856
 21
2164.868517322584
  0
LINE
  8
_1-0_
  6
CONTINUOUS
 62
    7
 10
2860.6982776131781
 20
2127.3106984127144
 11
2860.6982776131781
 21
2025.3684070351201
  0
LINE
  8
_1-0_
  6
CONTINUOUS
 62
    4
 10
3032.2859189130995
 20
2083.2167820388904
 11
3062.0868026738835
 21
2134.8333766259439
  0
LINE
  8
_1-0_
  6
CONTINUOUS
 62
    4
 10
3032.2859189130995
 20
2083.2167820388904
 11
3035.3917305439968
 21
2094.8078810157626
  0
LINE
  8
_1-0_
  6
CONTINUOUS
 62
    7
 10
3041.2522833575526
 20
2042.3683075878771
 11
3041.2522833575526
 21
2197.3682901492612
  0
CIRCLE
  8
_1-0_
  6
CONTINUOUS
 62
    7
 10
2851.6983179105205
 20
2025.3684070351201
 40
9.00000016569631
  0
ARC
  8
_1-0_
  6
CONTINUOUS
 62
    7
 10
3032.2523936450161
 20
2197.3682901492612
 40
8.9999925105267984
 50
0
 51
180
  0
ARC
  8
_1-0_
  6
CONTINUOUS
 62
    7
 10
3032.2523936450161
 20
2157.3682359481572
 40
8.9999925105267984
 50
180
 51
0
  0
ARC
  8
_1-0_
  6
CONTINUOUS
 62
    7
 10
3049.2524341780154
 20
2042.3683075878771
 40
8.0000004510621778
 50
180
 51
270
  0
ARC
  8
_1-0_
  6
CONTINUOUS
 62
    7
 10
3039.2525256129215
 20
2032.3683990227828
 40
16.000000902124356
 50
180
 51
270
  0
ARC
  8
_1-0_
  6
CONTINUOUS
 62
    7
 10
2896.6983263941715
 20
2127.3108383929566
 40
53.999998806986582
 50
149.99998474121094
 51
180
  0
ARC
  8
_1-0_
  6
CONTINUOUS
 62
    7
 10
2896.6982564040509
 20
2127.3106984127144
 40
36.00000066278524
 50
150
 51
180
  0
ARC
  8
_1-0_
  6
CONTINUOUS
 62
    7
 10
2851.6983179105205
 20
2179.3685107241886
 40
10.999999594964576
 50
330.00018310546875
 51
265.51319885253906
  0
ARC
  8
_1-0_
  6
CONTINUOUS
 62
    7
 10
2851.6983179105205
 20
2179.3685107241886
 40
28.999999926357201
 50
330.00004577636724
 51
249.40296936035162
  0
ARC
  8
_1-0_
  6
DASHED1
 62
    7
 10
3032.2523936450161
 20
2197.3682901492612
 40
8.9999597026574563
 50
180
 51
0
  0
ARC
  8
_1-0_
  6
DASHED1
 62
    7
 10
3032.2523936450161
 20
2157.3682359481572
 40
9.0000296927787158
 50
0
 51
180
  0
POINT
  8
_1-0_
 62
    4
 10
2842.6983582078628
 20
2284.0665931362605
  0
POINT
  8
_1-0_
 62
    4
 10
2860.6982776131781
 20
2284.0665931362605
  0
POINT
  8
_1-0_
 62
    4
 10
2745.1615950129576
 20
2016.368517322584
  0
POINT
  8
_1-0_
 62
    4
 10
2745.1615950129576
 20
2206.3683198420399
  0
POINT
  8
_1-0_
 62
    4
 10
3083.2522352835299
 20
1966.3267004638726
  0
POINT
  8
_1-0_
 62
    4
 10
3023.2523639522378
 20
1966.3267004638726
  0
TEXT
  8
_1-0_
 62
    7
 10
2741.8563734828113
 20
2102.9679682609194
 40
30
 41
1
 50
90.000002500000249
  1
Ｌ
  0
TEXT
  8
_1-0_
 62
    7
 10
2792.564002902518
 20
2292.9688447612675
 40
30
 41
1
 50
0
  1
内径１１
  0
TEXT
  8
_1-0_
 62
    7
 10
3060.1536617679603
 20
2139.6240859137197
 40
30
 41
1
 50
0
  1
φ９
  0
TEXT
  8
_1-0_
 62
    7
 10
3037.5490558820666
 20
1969.7840741224122
 40
30
 41
1
 50
0
  1
30
  0
TEXT
  8
_1-0_
 62
    7
 10
2485.8227069859977
 20
2302.7317324016085
 40
30
 41
1
 50
0
  1
マルカン
  0
LINE
  8
_0-0_
  6
CONTINUOUS
 62
    7
 10
3081.0687123114021
 20
3355.6598437018265
 11
3081.0687123114021
 21
3346.659843701827
  0
LINE
  8
_0-0_
  6
CONTINUOUS
 62
    7
 10
2581.0687123114021
 20
3386.659843701827
 11
2590.0687123114017
 21
3386.659843701827
  0
LINE
  8
_0-0_
  6
CONTINUOUS
 62
    7
 10
2581.0687123114021
 20
3355.6598437018265
 11
2581.0687123114021
 21
3386.659843701827
  0
LINE
  8
_0-0_
  6
CONTINUOUS
 62
    7
 10
2590.0687123114017
 20
3346.659843701827
 11
3081.0687123114021
 21
3346.659843701827
  0
ARC
  8
_0-0_
  6
CONTINUOUS
 62
    7
 10
2590.0687123114017
 20
3355.6598437018265
 40
9
 50
180
 51
270
  0
LINE
  8
_0-0_
  6
CONTINUOUS
 62
    7
 10
2590.0687123114017
 20
3356.659843701827
 11
2590.0687123114017
 21
3386.659843701827
  0
LINE
  8
_0-0_
  6
CONTINUOUS
 62
    7
 10
2591.0687123114021
 20
3355.6598437018265
 11
3081.0687123114021
 21
3355.6598437018265
  0
ARC
  8
_0-0_
  6
CONTINUOUS
 62
    7
 10
2591.0687123114021
 20
3356.659843701827
 40
1
 50
180
 51
270
  0
LINE
  8
_0-0_
  6
CONTINUOUS
 62
    4
 10
3081.0687123114021
 20
3277.4731944314126
 11
2581.0687123114021
 21
3277.4731944314126
  0
POINT
  8
_0-0_
 62
    4
 10
3081.0687123114021
 20
3277.4731944314126
  0
POINT
  8
_0-0_
 62
    4
 10
2581.0687123114021
 20
3277.4731944314126
  0
LINE
  8
_0-0_
  6
CONTINUOUS
 62
    4
 10
3081.0687123114021
 20
3277.4731944314126
 11
3081.0687123114021
 21
3304.5291320193801
  0
LINE
  8
_0-0_
  6
CONTINUOUS
 62
    4
 10
2581.0687123114021
 20
3277.4731944314126
 11
2581.0687123114021
 21
3304.5291320193801
  0
TEXT
  8
_0-0_
 62
    7
 10
2808.5687123114021
 20
3280.4731944314117
 40
30
 41
1
 50
0
  1
500
  0
LINE
  8
_0-0_
  6
CONTINUOUS
 62
    4
 10
2528.155348453774
 20
3386.659843701827
 11
2528.155348453774
 21
3346.659843701827
  0
POINT
  8
_0-0_
 62
    4
 10
2528.155348453774
 20
3386.659843701827
  0
POINT
  8
_0-0_
 62
    4
 10
2528.155348453774
 20
3346.659843701827
  0
LINE
  8
_0-0_
  6
CONTINUOUS
 62
    4
 10
2528.155348453774
 20
3386.659843701827
 11
2557.0150152142733
 21
3386.659843701827
  0
LINE
  8
_0-0_
  6
CONTINUOUS
 62
    4
 10
2528.155348453774
 20
3346.659843701827
 11
2557.0150152142733
 21
3346.659843701827
  0
TEXT
  8
_0-0_
 62
    7
 10
2525.155348453774
 20
3351.659843701827
 40
30
 41
1
 50
90
  1
40
  0
TEXT
  8
_0-0_
 62
    7
 10
2789.6362649294242
 20
3375.2062677146118
 40
30
 41
1
 50
0
  1
鉄筋φ9
  0
TEXT
  8
_1-0_
 62
    7
 10
2487.6664072574331
 20
3104.1656264375074
 40
30
 41
1
 50
0
  1
角座金
  0
TEXT
  8
_1-0_
 62
    7
 10
3189.4365307723228
 20
4220.0730124922065
 40
30
 41
1
 50
0
  1
表面処理：JIS H 8610 3級
  0
TEXT
  8
_1-0_
 62
    7
 10
3189.4365307723228
 20
4179.7822338792075
 40
30
 41
1
 50
0
  1
　　　　＋JIS H 8625 2級
  0
TEXT
  8
_1-0_
 62
    7
 10
3189.4365307723228
 20
3804.6749536929638
 40
30
 41
1
 50
0
  1
表面処理：JIS H 8610 3級
  0
TEXT
  8
_1-0_
 62
    7
 10
3189.4365307723228
 20
3764.3841750799652
 40
30
 41
1
 50
0
  1
　　　　＋JIS H 8625 2級
  0
TEXT
  8
_1-0_
 62
    7
 10
3189.4365307723228
 20
2583.8418426627095
 40
30
 41
1
 50
0
  1
表面処理：JIS H 8610 3級
  0
TEXT
  8
_1-0_
 62
    7
 10
3189.4365307723228
 20
2543.5510640497109
 40
30
 41
1
 50
0
  1
　　　　＋JIS H 8625 2級
  0
TEXT
  8
_1-0_
 62
    7
 10
3189.4365307723228
 20
2102.0087283332573
 40
30
 41
1
 50
0
  1
表面処理：JIS H 8610 3級
  0
TEXT
  8
_1-0_
 62
    7
 10
3189.4365307723228
 20
2061.7179497202587
 40
30
 41
1
 50
0
  1
　　　　＋JIS H 8625 2級
  0
TEXT
  8
_1-0_
 62
    7
 10
3189.4365307723228
 20
3025.7381197660588
 40
30
 41
1
 50
0
  1
表面処理：JIS H 8610 3級
  0
TEXT
  8
_1-0_
 62
    7
 10
3189.4365307723228
 20
2983.9292247875323
 40
30
 41
1
 50
0
  1
　　　　　JIS H 8625 2級
  0
TEXT
  8
_1-0_
 62
    7
 10
3189.4365307723228
 20
3107.4557869222635
 40
30
 41
1
 50
0
  1
　　材質：JIS G 3101
  0
TEXT
  8
_1-0_
 62
    7
 10
3189.4365307723228
 20
3067.5470147445858
 40
30
 41
1
 50
0
  1
　　　　　JIS G 3141
  0
TEXT
  8
_1-0_
 62
    7
 10
3189.4365307723228
 20
2706.2370538895657
 40
30
 41
1
 50
0
  1
　　材質：JIS G 3101
  0
TEXT
  8
_1-0_
 62
    7
 10
3189.4365307723228
 20
2666.2370538895657
 40
30
 41
1
 50
0
  1
　　　　　JIS G 3111
  0
TEXT
  8
_1-0_
 62
    7
 10
3189.4365307723228
 20
2626.2370538895657
 40
30
 41
1
 50
0
  1
　　　　　JIS G 3131
  0
TEXT
  8
_1-0_
 62
    7
 10
3189.4365307723228
 20
4342.4682237190627
 40
30
 41
1
 50
0
  1
　　材質：JIS G 3101
  0
TEXT
  8
_1-0_
 62
    7
 10
3189.4365307723228
 20
4302.4682237190627
 40
30
 41
1
 50
0
  1
　　　　　JIS G 3131
  0
TEXT
  8
_1-0_
 62
    7
 10
3189.4365307723228
 20
4262.4682237190627
 40
30
 41
1
 50
0
  1
　　　　　JIS G 3141
  0
TEXT
  8
_1-0_
 62
    7
 10
3189.4365307723228
 20
3927.0701649198199
 40
30
 41
1
 50
0
  1
　　材質：JIS G 3101
  0
TEXT
  8
_1-0_
 62
    7
 10
3189.4365307723228
 20
3887.0701649198199
 40
30
 41
1
 50
0
  1
　　　　　JIS G 3505
  0
TEXT
  8
_1-0_
 62
    7
 10
3189.4365307723228
 20
3847.0701649198199
 40
30
 41
1
 50
0
  1
　　　　　JIS G 3112
  0
TEXT
  8
_1-0_
 62
    7
 10
3189.4365307723228
 20
2304.4039395601135
 40
30
 41
1
 50
0
  1
　　材質：JIS G 3101
  0
TEXT
  8
_1-0_
 62
    7
 10
3189.4365307723228
 20
2264.4039395601135
 40
30
 41
1
 50
0
  1
　　　　　JIS G 3111
  0
TEXT
  8
_1-0_
 62
    7
 10
3189.4365307723228
 20
2224.4039395601135
 40
30
 41
1
 50
0
  1
　　　　　JIS G 3112
  0
TEXT
  8
_1-0_
 62
    7
 10
3189.4365307723228
 20
2184.4039395601135
 40
30
 41
1
 50
0
  1
　　　　　JIS G 3117
  0
TEXT
  8
_1-0_
 62
    7
 10
3189.4365307723228
 20
2144.4039395601135
 40
30
 41
1
 50
0
  1
　　　　　JIS G 3505
  0
TEXT
  8
_1-0_
 62
    7
 10
3189.4365307723228
 20
3511.0388089690432
 40
30
 41
1
 50
0
  1
　　材質：JIS G 3101
  0
TEXT
  8
_1-0_
 62
    7
 10
3189.4365307723228
 20
3471.0388089690432
 40
30
 41
1
 50
0
  1
　　　　　JIS G 3111
  0
TEXT
  8
_1-0_
 62
    7
 10
3189.4365307723228
 20
3431.0388089690432
 40
30
 41
1
 50
0
  1
　　　　　JIS G 3112
  0
TEXT
  8
_1-0_
 62
    7
 10
3189.4365307723228
 20
3391.0388089690432
 40
30
 41
1
 50
0
  1
　　　　　JIS G 3117
  0
TEXT
  8
_1-0_
 62
    7
 10
3189.4365307723228
 20
3351.0388089690432
 40
30
 41
1
 50
0
  1
　　　　　JIS G 3505
  0
LINE
  8
_0-0_
  6
CONTINUOUS
 62
    7
 10
2475.0000179688441
 20
2346.9354757655083
 11
3570.0001019216411
 21
2346.9354757655083
  0
LINE
  8
_1-0_
  6
CONTINUOUS
 62
    7
 10
2475.0000179688441
 20
1945.1023614360561
 11
3570.0001019216411
 21
1945.1023614360561
  0
LINE
  8
_0-0_
  6
CONTINUOUS
 62
    7
 10
2475.0000179688441
 20
3969.6017011252152
 11
3570.0001019216411
 21
3969.6017011252152
  0
LINE
  8
_0-0_
  6
CONTINUOUS
 62
    7
 10
2475.0000179688441
 20
3554.2036423259724
 11
3570.0001019216411
 21
3554.2036423259724
  0
LINE
  8
_0-0_
  6
CONTINUOUS
 62
    7
 10
2475.0000179688441
 20
3150.6017044244127
 11
3570.0001019216411
 21
3150.6017044244127
  0
LINE
  8
_1-0_
  6
CONTINUOUS
 62
    7
 10
2805.1414184822634
 20
2849.6851472596873
 11
2905.1414184822634
 21
2849.6851472596873
  0
LINE
  8
_1-0_
  6
CONTINUOUS
 62
    7
 10
2905.1414184822634
 20
2849.6851472596873
 11
2905.1414184822634
 21
3049.6851472596873
  0
LINE
  8
_1-0_
  6
CONTINUOUS
 62
    7
 10
2905.1414184822634
 20
3049.6851472596873
 11
2805.1414184822634
 21
3049.6851472596873
  0
LINE
  8
_1-0_
  6
CONTINUOUS
 62
    7
 10
2805.1414184822634
 20
3049.6851472596873
 11
2805.1414184822634
 21
2849.6851472596873
  0
CIRCLE
  8
_1-0_
  6
CONTINUOUS
 62
    7
 10
2855.1414184822634
 20
2949.6851472596873
 40
15
  0
LINE
  8
_1-0_
  6
CONTINUOUS
 62
    4
 10
2805.1414184822634
 20
3082.2341896466669
 11
2905.1414184822634
 21
3082.2341896466669
  0
POINT
  8
_1-0_
 62
    4
 10
2805.1414184822634
 20
3082.2341896466669
  0
POINT
  8
_1-0_
 62
    4
 10
2905.1414184822634
 20
3082.2341896466669
  0
LINE
  8
_1-0_
  6
CONTINUOUS
 62
    4
 10
2805.1414184822634
 20
3082.2341896466669
 11
2805.1414184822634
 21
3068.7062208526827
  0
LINE
  8
_1-0_
  6
CONTINUOUS
 62
    4
 10
2905.1414184822634
 20
3082.2341896466669
 11
2905.1414184822634
 21
3068.7062208526827
  0
TEXT
  8
_1-0_
 62
    7
 10
2840.1414184822634
 20
3085.2341896466669
 40
30
 41
1
 50
0
  1
50
  0
LINE
  8
_1-0_
  6
CONTINUOUS
 62
    4
 10
2747.7694291285316
 20
3049.6851472596873
 11
2747.7694291285316
 21
2849.6851472596873
  0
POINT
  8
_1-0_
 62
    4
 10
2747.7694291285316
 20
3049.6851472596873
  0
POINT
  8
_1-0_
 62
    4
 10
2747.7694291285316
 20
2849.6851472596873
  0
LINE
  8
_1-0_
  6
CONTINUOUS
 62
    4
 10
2747.7694291285316
 20
3049.6851472596873
 11
2764.0029916813128
 21
3049.6851472596873
  0
LINE
  8
_1-0_
  6
CONTINUOUS
 62
    4
 10
2747.7694291285316
 20
2849.6851472596873
 11
2764.0029916813128
 21
2849.6851472596873
  0
TEXT
  8
_1-0_
 62
    7
 10
2744.7694291285316
 20
2927.1851472596873
 40
30
 41
1
 50
90
  1
100
  0
LINE
  8
ADD_LINE
  6
DOT
 62
    4
 10
2840.1414184822634
 20
2949.6851472596873
 11
2870.1414184822634
 21
2949.6851472596873
  0
LINE
  8
ADD_LINE
  6
DOT
 62
    4
 10
2855.1414184822634
 20
2964.6851472596873
 11
2855.1414184822634
 21
2934.6851472596873
  0
LINE
  8
_1-0_
  6
CONTINUOUS
 62
    4
 10
2878.5616821592384
 20
2973.1054109366614
 11
2830.1580841226451
 21
2924.7018129000685
  0
LINE
  8
_1-0_
  6
CONTINUOUS
 62
    4
 10
2878.5616821592384
 20
2973.1054109366614
 11
2931.7164023346299
 21
2973.1054109366614
  0
TEXT
  8
_1-0_
 62
    7
 10
2931.7164023346299
 20
2958.1054109366614
 40
30
 41
1
 50
0
  1
φ15
  0
LINE
  8
_1-0_
  6
CONTINUOUS
 62
    7
 10
3039.9406137250853
 20
2849.6851472596873
 11
3048.9406137250858
 21
2849.6851472596873
  0
LINE
  8
_1-0_
  6
CONTINUOUS
 62
    7
 10
3048.9406137250858
 20
2849.6851472596873
 11
3048.9406137250858
 21
3049.6851472596873
  0
LINE
  8
_1-0_
  6
CONTINUOUS
 62
    7
 10
3048.9406137250858
 20
3049.6851472596873
 11
3039.9406137250853
 21
3049.6851472596873
  0
LINE
  8
_1-0_
  6
CONTINUOUS
 62
    7
 10
3039.9406137250853
 20
3049.6851472596873
 11
3039.9406137250853
 21
2849.6851472596873
  0
LINE
  8
_1-0_
  6
CONTINUOUS
 62
    4
 10
3048.9406137250858
 20
3082.2341896466669
 11
3039.9406137250853
 21
3082.2341896466669
  0
POINT
  8
_1-0_
 62
    4
 10
3048.9406137250858
 20
3082.2341896466669
  0
POINT
  8
_1-0_
 62
    4
 10
3039.9406137250853
 20
3082.2341896466669
  0
LINE
  8
_1-0_
  6
CONTINUOUS
 62
    4
 10
3048.9406137250858
 20
3082.2341896466669
 11
3048.9406137250858
 21
3068.7062208526827
  0
LINE
  8
_1-0_
  6
CONTINUOUS
 62
    4
 10
3039.9406137250853
 20
3082.2341896466669
 11
3039.9406137250853
 21
3068.7062208526827
  0
TEXT
  8
_1-0_
 62
    7
 10
3021.9406137250862
 20
3085.2341896466669
 40
30
 41
1
 50
0
  1
4.5
  0
ENDSEC
  0
EOF
